Song name
# A B C D E F G H I J K L M N O P Q R S T U V W X Y Z

Bloodsoaked - Killing You tab

-------------------------------------------------------------------------------
			     Killing You - Bloodsoaked
-------------------------------------------------------------------------------
Tabbed by: Peter Hasselbrack
Email: phasselbrack@hotmail.com

Web Site: http://www.myspace.com/bloodsoakedband
Web Site: http://www.bloodsoaked.us

Tuning: D-G-C-F-A-D


(First Riff in song, played 3 times)
D|---------------------------------------------------------------------------|
A|---------------------------------------------------------------------------|
F|---------------------------------------------------------------------------|
C|---------------------------------------------------------------------------|
G|--------------------------------------------------6-6-6-6-5-5-5-5----------|
D|-0-0-0-0-0-0-0-0-0-0-0-0-0-0-0-0-6-6-6-6-7-7-7-7--------------------------|

First Riff in song continued, on the fourth time the riff ends like this)
D|---------------------------------|
A|---------------------------------|
F|---------------------------------|
C|---------------------------------|
G|-----------------2-2-2-2-1-1-1-1-|
D|-2-2-2-2-3-3-3-3-----------------|

(Second Riff in song, played 6 times)
D|---------------------------------------------------------------------------------|
A|---------------------------------------------------------------------------------|
F|---------------------------------------------------------------------------------|
C|---------------------------------------------------------------------------------|
G|-----------------4-4-4-4-3-3-3-3-1-1-1-1-1-1-1-1-3-3-3-3-4-4-4-4-----------------|
D|-0-0-0-0-1-1-1-1-------------------------------------------------1-1-1-1-2-2-2-2-|

(Third Riff in song, played 3 times)
D|---------------------------------------------------------------------------|
A|---------------------------------------------------------------------------|
F|---------------------------------------------------------------------------|
C|-2-------------3-------------2-----------------------------4-4-4-4-3-3-3-3-|
G|-2-------------3-------------2-------------3-3-3-3-2-2-2-2-----------------|
D|---0-0-000-000---0-0-000-000---0-0-000-000---------------------------------|

(Third Riff in song continued, on the fourth time the riff ends like this)
D|---------------------------------|
A|---------------------------------|
F|---------------------------------|
C|---------------------------------|
G|-3-3-3-3-2-2-2-2-----------------|
D|-----------------3-3-3-3-2-2-2-2-|

(Fourth Riff in song, played 3 times)
D|---------------------------------------------------------------------------|
A|---------------------------------------------------------------------------|
F|---------------------------------------------------------------------------|
C|---------------------------------------------------------------------------|
G|-3-2-----1-------3-2-----1-------3-2-----1--------2-2-2-2-2-2-2-2----------|
D|-----3-0---2-1-0-----3-0---2-1-0-----3-0---2-1-0--0-0-0-0-0-0-0-0----------|

(Fifth Riff in song, played 3 times)
D|---------------------------------------------------------------------------|
A|---------------------------------------------------------------------------|
F|---------------------------------------------------------------------------|
C|---------------------------------------------------------------------------|
G|-----------------3-3-3-3-2-2-2-2-5-5-5-5-4-4-4-4-7-7-7-7-6-6-6-6-----------|
D|-0-0-0-0-2-2-2-2-----------------------------------------------------------|

(Fifth Riff continued)
D|---------------------------------------------------------------------------|
A|---------------------------------------------------------------------------|
F|---------------------------------------------------------------------------|
C|--------------------------------------------------9------------------------|
G|-----------------3-3-3-3-2-2-2-2-5-5-5-5-4-4-4-4--7------------------------|
D|-0-0-0-0-2-2-2-2-----------------------------------------------------------|

Go back to the fourth Riff
Then back to the third Riff
Then go back to the second Riff
Then go back to the fourth Riff
Then go back to the first Riff


(This is the Last Riff in song played twice)
D|---------------------------------------------------------------------------|
A|---------------------------------------------------------------------------|
F|---------------------------------------------------------------------------|
C|-------5--4--7--6--9--8-----------5--4--7--6--9----------------------------|
G|-2--4--3--2--5--4--7--6-----2--4--3--2--5--4--7----------------------------|
D|-0--2-----------------------0--2-------------------------------------------|


| /  slide up
| \  slide down
| h  hammer-on
| p  pull-off
| ~  vibrato
| +  harmonic
| x  Mute note
===============================================================================
Tap to rate this tab
# A B C D E F G H I J K L M N O P Q R S T U V W X Y Z