Song name
# A B C D E F G H I J K L M N O P Q R S T U V W X Y Z

Bloodsoaked - Rise With Me tab

-----------------------------------------------------------------
SONG NAME: Rise With Me - Band Name: BLOODSOAKED
-----------------------------------------------------------------
Tabbed by: Peter Hasselbrack
Email: phasselbrack@hotmail.com

Web Site: http://www.bloodsoaked.us
Web Site: http://www.myspace.com/bloodsoakedband
Web Site: http://profile.ultimate-guitar.com/Bloodsoaked


Tuning: D-G-C-F-A-D


(First Riff)
D|------------------------------------------------------|
A|------------------------------------------------------|
F|------------------------------------------------------|
C|----------------------8-7-------------------------8-7-|
G|-6-5-----7-6------7-8-6-5----6-5-----7-6------7-8-6-5-|
D|-----6-5-----7-6--5-6------------6-5-----7-6--5-6-----|


(First Riff Continued)
D|---------------------------------------------------------------|
A|---------------------------------------------------------------|
F|-----------------------------------------------------------6-5-|
C|----------------------8-7-------------------------8-7------4-3-|
G|-6-5-----7-6------7-8-6-5----6-5-----7-6------7-8-6-5--5-6-----|
D|-----6-5-----7-6--5-6------------6-5-----7-6--5-6------3-4-----|


(Second Riff)
D|--------------------------------------------------------------------------|
A|--------------------------------------------------------------------------|
F|--------------------------------------------------------------------------|
C|---------5/4----------------5/4----------------5/4------------------------|
G|-2-4-5-4-3/2-4-5----2-4-5-4-3/2-4-5----2-4-5-4-3/2-4-5----2-4-5-4-2-3-4-3-|
D|-0-2-3-2-----2-3----0-2-3-2-----2-3----0-2-3-2-----2-3----0-2-3-2-0-1-2-1-|


(Second Riff Continued)
D|--------------------------------------------------------------------------|
A|--------------------------------------------------------------------------|
F|--------------------------------------------------------------------------|
C|---------5/4----------------5/4----------------5/4------------------------|
G|-2-4-5-4-3/2-4-5----2-4-5-4-3/2-4-5----2-4-5-4-3/2-4-5----2-4-5-4-5-7-8-7-|
D|-0-2-3-2-----2-3----0-2-3-2-----2-3----0-2-3-2-----2-3----0-2-3-2-3-5-6-5-|


(Third Riff)
D|----------------------------------------------------------------|
A|----------------------------------------------------------------|
F|----------------------------------------------------------------|
C|----------------------------------------------------------------|
G|-2-3-4--11111111--4-5-4--44444444--2-3-4--11111111--2-3-5-4-6-5-|
D|-0-1-2------------2-3-2------------0-1-2------------0-1-3-2-4-3-|


(Fourth Riff / Right After The Drum Roll / Played 8 Times)
D|-------------------------------------------------------------|
A|-------------------------------------------------------------|
F|-------------------------------------------------------------|
C|-------------------------------------------------------5-4-5-|
G|-4-5-4-44444444--4-5-4-44444444--4-5-4-44444444--4-5-4-3-2-3-|
D|-2-3-2-----------2-3-2-----------2-3-2-----------2-3-2-------|


(Fifth Riff / Right After the Quick Break / Played 8 Times)
D|-----------------------------------|
A|-----------------------------------|
F|-----------------------------------|
C|-----------------------------------|
G|-----5555566663333----3333----2222-|
D|-3333-------------2222----1111-----|


(Then go back to the Fourth Riff and play it 4 times to end the song).


All the riffs to the song are listed here, just listen
to the song and you should be playing it in no time.

Any questions please contact me.


| /  slide up
| \  slide down
| h  hammer-on
| p  pull-off
| ~  vibrato
| +  harmonic
| x  Mute note
===============================================================
Tap to rate this tab
# A B C D E F G H I J K L M N O P Q R S T U V W X Y Z