Song name
# A B C D E F G H I J K L M N O P Q R S T U V W X Y Z

Bloodsoaked - Unborn Horror tab

-----------------------------------------------------------------
SONG NAME: Unborn Horror - Band Name: BLOODSOAKED
-----------------------------------------------------------------
Tabbed by: Peter Hasselbrack
Email: phasselbrack@hotmail.com

Web Site: http://www.bloodsoaked.us
Web Site: http://www.myspace.com/bloodsoakedband
Web Site: http://profile.ultimate-guitar.com/Bloodsoaked


Tuning: D-G-C-F-A-D


(First Riff)
D|------------------------------------------------------------------|
A|------------------------------------------------------------------|
F|------------------------------------------------------------------|
C|------------------------------------------------------------------|
G|-------------2222------------3333------------2222-0-2-3-2-0-2-3-2-|
D|-111122221111----111122221111----111122221111-----0-2-3-2-0-2-3-2-|


(Second Riff)
D|--------------------------------------------|
A|--------------------------------------------|
F|--------------------------------------------|
C|--------------------------------------------|
G|-3-2-1-2-3-2-1-2-3-2-1-2----2-2--2---2-2--2-|
D|-3-2-1-2-3-2-1-2-3-2-1-2----1-1--1---1-1--1-|


(Third Riff / play this the first 3 times)
D|----------------------------------|
A|----------------------------------|
F|----------------------------------|
C|----------------------------------|
G|------------------2-2--2---2-2--2-|
D|-000-000-000-000--1-1--1---1-1--1-|


(Third Riff / play this the 4th time)
D|----------------------------------|
A|----------------------------------|
F|----------------------------------|
C|----------------------------------|
G|------------------4-4--4---4-4--4-|
D|-000-000-000-000--3-3--3---3-3--3-|


(Fourth Riff)
D|--------------------------------------------------------------------------|
A|--------------------------------------------------------------------------|
F|--------------------------------------------------------------------------|
C|--------------------------------------------------------------------------|
G|--------------------------------------------------------------------------|
D|-000011112222111144443333000011112222111166665555000011112222111144443333-|


(End of Fourth Riff)
D|----------|
A|----------|
F|----------|
C|----------|
G|-2-2--2-2-|
D|-0-0--0-0-|


(Fifth Riff)
D|--------------------------------------|
A|--------------------------------------|
F|--------------------------------------|
C|-------4-------5-------2--------------|
G|-3-4-3-2-3-4-3-3-3-4-3-2--4-4-4-3-3-3-|
D|-1-2-1---1-2-1---1-2-1----3-3-3-2-2-2-|



All the riffs to the song are listed here, just listen
to the song and you should be playing it in no time.

Any questions please contact me (see above).



| /  slide up
| \  slide down
| h  hammer-on
| p  pull-off
| ~  vibrato
| +  harmonic
| x  Mute note
===============================================================
Tap to rate this tab
# A B C D E F G H I J K L M N O P Q R S T U V W X Y Z