Song name
# A B C D E F G H I J K L M N O P Q R S T U V W X Y Z

Bloodsoaked - My Own God tab

-----------------------------------------------------------------
SONG NAME: Rise With Me - Band Name: BLOODSOAKED
-----------------------------------------------------------------
Tabbed by: Peter Hasselbrack
Email: phasselbrack@hotmail.com

Web Site: http://www.bloodsoaked.us
Web Site: http://www.myspace.com/bloodsoakedband
Web Site: http://profile.ultimate-guitar.com/Bloodsoaked


Tuning: D-G-C-F-A-D


(First Riff)
D|-------------------------------------------|
A|-------------------------------------------|
F|-------------------------------------------|
C|-------------------------------------------|
G|-2-4-5-4----------444444446666666644444444-|
D|-0-2-3-2--33333333-------------------------|

(First Riff Continued)
D|-------------------------------------------|
A|-------------------------------------------|
F|-------------------------------------------|
C|-------------------------------------------|
G|-2-4-5-4--55555555666666668888888877777777-|
D|-0-2-3-2-----------------------------------|

(Second Riff)
D|-----------------------------------------------------------|
A|-----------------------------------------------------------|
F|-----------------------------------------------------------|
C|-----------------88887777----------------------------------|
G|-----666655556666--------88887777----666655556666--7-8-7-6-|
D|-5555----------------------------5555--------------5-6-5-4-|

(Second Riff Continued)
D|-------------------------------------------------------------------|
A|-------------------------------------------------------------------|
F|-------------------------------------------------------------------|
C|-----------------88887777------------------------------------------|
G|-----666655556666--------88887777----666655556666--7-8-7-6-7-6-5-6-|
D|-5555----------------------------5555--------------5-6-5-4-5-4-3-4-|

(Third Riff Played Twice)
D|---------------------------------------------------------|
A|---------------------------------------------------------|
F|---------------------------------------------------------|
C|---------------------------------------------------------|
G|-22221111----------------4444333322221111----------2-5-4-|
D|---------2222111100003333----------------22221111--0-3-2-|

(Third Riff Played Four Time)
D|----------------------------------------------------------------|
A|----------------------------------------------------------------|
F|----------------------------------------------------------------|
C|----------------------------------------------------------------|
G|-22221111----------------4444333322221111-----------------------|
D|---------2222111100003333----------------22221111--000033332222-|

(Fourth Riff)
D|----------------------------------------------------------------------|
A|----------------------------------------------------------------------|
F|----------------------------------------------------------------------|
C|--------------------------------3-------------------------------------|
G|----------4/3-4/3---------------1-----------4/3-4/3----------33332222-|
D|-0-2-1-0--2/1-2/1--0-2-1-0-2-1-----0-2-1-0--2/1-2/1--00002222---------|

(Fourth Riff Continued)
D|------------------|
A|------------------|
F|------------------|
C|-4444333366665555-|
G|------------------|
D|------------------|

(Fifth/Last Riff)
D|--------------------------------------------------------------|
A|--------------------------------------------------------------|
F|--------------------------------------------------------------|
C|-----------------99998888-11-11-11-11-10-10-10-10-------------|
G|---------88887777-------------------------------------------2-|
D|-00007777------------------------------------------0-2-1-0--0-|

Allthe riffs to the song are listed here, just listen to the song and you should be 
it in no time.

Any questions please contact me via the email or web sites listed above.

| /  slide up
| \  slide down
| h  hammer-on
| p  pull-off
| ~  vibrato
| +  harmonic
| x  Mute note
===============================================================
Tap to rate this tab
# A B C D E F G H I J K L M N O P Q R S T U V W X Y Z