Song name
# A B C D E F G H I J K L M N O P Q R S T U V W X Y Z

Bloodsoaked - Depression tab

SONG NAME: Rise With Me - Band Name: BLOODSOAKED
-----------------------------------------------------------------
Tabbed by: Peter Hasselbrack
Email: phasselbrack@hotmail.com

Web Site: http://www.bloodsoaked.us
Web Site: http://www.myspace.com/bloodsoakedband
Web Site: http://profile.ultimate-guitar.com/Bloodsoaked


Tuning: D-G-C-F-A-D


(First Riff Played 3 Times)
D|----------------------------------------|
A|----------------------------------------|
F|----------------------------------------|
C|----------------------------------------|
G|----------------------------------------|
D|-00001111222211112222333344443333-------|

(End of First Riff Played 1 Time)
D|----------------------------------------|
A|----------------------------------------|
F|----------------------------------------|
C|----------------------------------------|
G|------------------4-5-6-5---------------|
D|-0000111122221111-2-3-4-3---------------|

(Second Riff Played 4 Times)
D|---------------------------------------------------|
A|---------------------------------------------------|
F|---------------------------------------------------|
C|---------------------------------------------------|
G|-3-2-----5-4------2-3-4-3---3-2-----5-4------2-4-5-|
D|-----3-2-----5-4--0-1-2-1-------3-2-----5-4--0-2-3-|

(Second Riff ends with this)
D|---------------|
A|---------------|
F|---------------|
C|---------------|
G|--2-4-5--2-4-5-|
D|--0-2-3--0-2-3-|

(Third Riff Played 3 Times)
D|------------------------------|
A|------------------------------|
F|------------------------------|
C|------------------------------|
G|-3-3-2-2-----2-2----------3-4-|
D|---------3-3-----3-3-2-2--1-2-|

(End of Third Riff ends like this)
D|-------------------------------|
A|-------------------------------|
F|-------------------------------|
C|-------------------------------|
G|--2-2-2-2-2-2-2-2-2-2-2-2--4-3-|
D|--0-0-0-0-0-0-0-0-0-0-0-0--2-1-|

(Fourth Riff Played 4 Times)
D|--------------------------------------|
A|--------------------------------------|
F|--------------------------------------|
C|--------------------------------------|
G|--2------------5-3-2--------4-3-------|
D|--0------------3-2-1--------2-1-------|

The song goes back to the first riff again.  All the riffs for the song are here, just 
and jam the song.


Any questions please contact me at the any of the email/web sites above.


| /  slide up
| \  slide down
| h  hammer-on
| p  pull-off
| ~  vibrato
| +  harmonic
| x  Mute note
===============================================================
Tap to rate this tab
 
# A B C D E F G H I J K L M N O P Q R S T U V W X Y Z