Song name
# A B C D E F G H I J K L M N O P Q R S T U V W X Y Z

Bloodsoaked - Consume The Flesh tab

-------------------------------------------------------------------------------
	     SONG NAME: Consume The Flesh - Band Name: Bloodsoaked
-------------------------------------------------------------------------------
Tabbed by: Peter Hasselbrack

Web Site: http://www.facebook.com/bloodsoaked666

Email: peterhasselbrack[at]gmail[dot]com


Tuning: D-G-C-F-A-D


(First Riff Played 10 Times)
D|--------------------------|
A|--------------------------|
F|--------------------------|
C|--------------------------|
G|-3-4-2---33333333---------|
D|-1-2-0-----------22222222-|


(The last 4 times the First Riff is played the 2nd guitar plays the harmony as follows)
D|--------------------------|
A|--------------------------|
F|--------------------------|
C|---------55555555---------|
G|-3-4-2-----------44444444-|
D|-1-2-0--------------------|


(Second Riff plays 6 Times)
D|-----------------------------------|
A|-----------------------------------|
F|-----------------------------------|
C|-----------------------------------|
G|-3-4-3--2222--3--3333--3-4-3-4---6-|
D|-1-2-1--------1--------1-2-1-2---4-|


(Third Riff) 
D|-------------------------------------------------------|
A|-------------------------------------------------------|
F|-------------------------------------------------------|
C|-------------------------------------------------------|
G|------------------------------------------3-4-11111111-|
D|-1111111111110000111122221111000000000000-1-2----------|


(Third Riff Continued)
D|----------------------------------------------------------|
A|----------------------------------------------------------|
F|----------------------------------------------------------|
C|----------------------------------------------------------|
G|-------------------------------------------------11111111-|
D|-111111111111000011112222111100000000000011112222---------|

The song go back into the second riff and just fades out, yes, only three riffs in the whole song.


| /  slide up
| \  slide down
| h  hammer-on
| p  pull-off
| ~  vibrato
| +  harmonic
| x  Mute note
===============================================================================
Tap to rate this tab
 
# A B C D E F G H I J K L M N O P Q R S T U V W X Y Z