Song name
# A B C D E F G H I J K L M N O P Q R S T U V W X Y Z

Bloodsoaked - Wading The Blood Pools tab

-----------------------------------------------------------------
SONG NAME: Wading The Blood Pools - Band Name: BLOODSOAKED
-----------------------------------------------------------------

Tabbed by: Peter Hasselbrack

Web Site: http://www.bloodsoaked.net

Email: info[at]bloodsoaked[dot]net

Tuning: D-G-C-F-A-D



First Riff - Guitar one plays 6 times, Guitar two plays 3 times
D|-------------------------------------|
A|-------------------------------------|
F|-------------------------------------|
C|-3-4-3-----5-------------3-4-3-----4-|
G|-2-3-2-----4-------------2-3-2-----3-|
D|-1-2-1-----3-------------1-2-1-----2-|


First Riff Continued - Guitar two played 3 times for the last 3 times the first riff is played.
D|---------------------------------------------||---------------------------------------------|
A|---------------------------------------------||---------------------------------------------|
F|---------------------------------------------||---------------------------------------------|
C|-3-4-3-----5--5-5-5--5---5-5-5--5---5-5-5--5-||-3-4-3-----4--4-4-4--4---4-4-4--4---4-4-4--4-|
G|-2-3-2-----4--4-5-4--4---4-4-4--4---4-4-4--4-||-2-3-2-----4--4-5-4--4---4-4-4--4---4-4-4--4-|
D|-1-2-1-----3--3-3-3--3---3-3-3--3---3-3-3--3-||-1-2-1-----3--3-3-3--3---3-3-3--3---3-3-3--3-|


Second riff - played 3 times
D|------------------------------------------------------------------------|
A|------------------------------------------------------------------------|
F|------------------------------------------------------------------------|
C|-3-4-3-------------------------------------3--3-3-3--3--3-3-3---7-6-9-8-|
G|-2-3-2-------------------------------------2--2-2-2--2--2-2-2---6-5-8-7-|
D|-1-2-1---00000000666666661111111188888888--1--1-1-1--1--1-1-1---5-4-7-6-|


Second Riff continued
D|---------------------------------------------------------------------------|
A|---------------------------------------------------------------------------|
F|---------------------------------------------------------------------------|
C|-3--3-3-3--3--3-3-3-------------------------------------3--3-3-3--3--3-3-3-|
G|-2--2-2-2--2--2-2-2-------------------------------------2--2-2-2--2--2-2-2-|
D|-1--1-1-1--1--1-1-1---00000000666666661111111188888888--1--1-1-1--1--1-1-1-|


Second Riff continued again
D|-------------------------|
A|-------------------------|
F|-------------------------|
C|-7-7-7-6-6-6-9-9-9-8-8-8-|
G|-6-6-6-5-5-5-8-8-8-7-7-7-|
D|-5-5-5-4-4-4-7-7-7-6-6-6-|


Third Riff played 4 times
D|------------------------------------|
A|------------------------------------|
F|------------------------------------|
C|-3--0----3-5-6--0-------------------|
G|-2--0----2-4-5--0-------------------|
D|-1--0----1-3-4--0-------------------|


Forth Riff played 4 times
D|---------------------------------| |----------|
A|---------------------------------| |----------|
F|---------------------------------| |----------|
C|-3------------3-5-5-6------------| |-3--------|
G|-2--000000----2-4-4-5--000000000-| |-2--------|
D|-1--000000----1-3-3-4--000000000-| |-1--------|


Fifth Riff
D|------------------------------------------------------------------|
A|------------------------------------------------------------------|
F|------------------------------------------------------------------|
C|---------3333------------3333------------3333------------3333-----|
G|-----2222----2222----2222----2222----2222----2222----2222----2222-|
D|-1111------------1111------------1111------------1111-------------|


Fifth Riff continued
D|----------------------------------|
A|----------------------------------|
F|----------------------------------|
C|---------5555------------5555-----|
G|-----4444----4444----4444----4444-|
D|-3333------------3333-------------|


After this the song goes back to the second riff and ends as this:
D|----------------|
A|----------------|
F|----------------|
C|-3--0-----------|
G|-2--0-----------|
D|-1--0-----------|


All the riffs to the song are here, just listen and you will be playing it in no time.  
Any questions please contact me (see above).


| /  slide up
| \  slide down
| h  hammer-on
| p  pull-off
| ~  vibrato
| +  harmonic
| x  Mute note
===============================================================
Tap to rate this tab
# A B C D E F G H I J K L M N O P Q R S T U V W X Y Z