Song name
# A B C D E F G H I J K L M N O P Q R S T U V W X Y Z

Bloodsport - Blood Sweat Loyalty tab

-------------------------------------------------------------------------------
			  Blood Sweat Loyalty - Bloodsport
-------------------------------------------------------------------------------

ARTIST   : Bloodsport
SONG     : Blood Sweat Loyalty
ALBUM    : Imprisonment
TABBED BY: h8urlife
TUNING   : C G C F A D



Intro:

D|-----------------------------------------------------|
A|-----------------------------------------------------|
F|-----------------------------------------------------|
C|-----------------------------------------------------|
G|-0~--------------5-8-4-7--1~--------------5-8-4-7----|
C|-0~--000-000-000----------1~--111-111-111------------|
       ... ... ...              ... ... ...   

D|-----------------------------------------------------|
A|-----------------------------------------------------|
F|-----------------------------------------------------|
C|-----------------------------------------------------|
G|-4~--------------5-8-4-7--3~--------------5-8-4-7----|
C|-4~--444-444-444----------3~--333-333-333------------|
       ... ... ...              ... ... ...   





Verse:

D|-----------------------------------------------------------|
A|-----------------------------------------------------------|
F|-----------------------------------------------------------|
C|-----------------------------------------------------------|
G|-0--------------7/6--------------4/3--------------1--1--1--|
C|-0-000-00000000-7/6-000-00000000-4/3-000-00000000-1--1--1--|
     ... ........     ... ........     ... ........      




Bridge:

D|-------------------------------------------------|
A|-------------------------------------------------|
F|-------------------------------------------------|
C|-------------------------------------------------|
G|-0~-----1-0~---1--1--1--0~-----1-0~---1--1--1----|
C|-0~-----1-0~---1--1--1--0~-----1-0~---1--1--1----|
        




Breakdown:

D|---------------------------------------------------------------|
A|---------------------------------------------------------------|
F|---------------------------------------------------------------|
C|---------------------------------------------------------------|
G|---------------------------------------------------------------|
C|-0000000000000---0000000000000---0000000000000---0000000000000-|
   .............   .............   .............   .............   




Bloodsport rulez!!!
www.myspace.com/bloodsporthardcore     

Tap to rate this tab
# A B C D E F G H I J K L M N O P Q R S T U V W X Y Z