Song name
# A B C D E F G H I J K L M N O P Q R S T U V W X Y Z

Bloodsport - Following Demons tab

-------------------------------------------------------------------------------
			  Following Demons - Bloodsport
-------------------------------------------------------------------------------

ARTIST   : Bloodsport
SONG     : Following Demons
ALBUM    : Imprisonment
TABBED BY: h8urlife
TUNING   : C G C F A D




Intro:

D|-----------|
A|-----------|
F|-----------|
C|-----------|
G|--1-3-6-0--|
C|--1-3-6-0--|
     





Verse:

D|-------------------------------------------------|
A|-------------------------------------------------|
F|-------------------------------------------------|
C|-------------------------------------------------|
G|-1-0-0-1-0-0-1-0-0-1-3-3-1-0-0-1-0-0-1-6--3-3-3--|
C|-1-0-0-1-0-0-1-0-0-1-3-3-1-0-0-1-0-0-1-6--3-3-3--|
   

D|-------------------------------------------------|
A|-------------------------------------------------|
F|-------------------------------------------------|
C|-------------------------------------------------|
G|-1-0-0-1-0-0-1-0-0-1-3-3--1-3-4-3-1-0-1-3-4-3-1--|
C|-1-0-0-1-0-0-1-0-0-1-3-3--1-3-4-3-1-0-1-3-4-3-1--|
                                            . . .




D|-------------------------------------------------------------|
A|-------------------------------------------------------------|
F|-------------------------------------------------------------|
C|-------------------------------------------------------------|
G|-------------------------------------------------------------|
C|-0-0-0-0--0-0-0--0-333-666-555-0-0-0-0--0-0-0--0-111-444-333-|   
   . . . .  . . .  . ... ... ... . . . .  . . .  . ... ... ... 





Verse:

D|-------------------------------------------------|
A|-------------------------------------------------|
F|-------------------------------------------------|
C|-------------------------------------------------|
G|-1-0-0-1-0-0-1-0-0-1-3-3-1-0-0-1-0-0-1-6--3-3-3--|
C|-1-0-0-1-0-0-1-0-0-1-3-3-1-0-0-1-0-0-1-6--3-3-3--|
   

D|-------------------------------------------------|
A|-------------------------------------------------|
F|-------------------------------------------------|
C|-------------------------------------------------|
G|-1-0-0-1-0-0-1-0-0-1-3-3--1-3-4-3-1-0-1-3-4-3-1--|
C|-1-0-0-1-0-0-1-0-0-1-3-3--1-3-4-3-1-0-1-3-4-3-1--|
                                            . . .


Verse:

D|-------------------------------------------------|
A|-------------------------------------------------|
F|-------------------------------------------------|
C|-------------------------------------------------|
G|-1-0-0-1-0-0-1-0-0-1-3-3-1-0-0-1-0-0-1-6--3-3-3--|
C|-1-0-0-1-0-0-1-0-0-1-3-3-1-0-0-1-0-0-1-6--3-3-3--|
   . . . . . . . . .       . . . . . . 

D|-------------------------------------------------|
A|-------------------------------------------------|
F|-------------------------------------------------|
C|-------------------------------------------------|
G|-1-0-0-1-0-0-1-0-0-1-3-3--1-3-4-3-1-0-1-3-4-3-1--|
C|-1-0-0-1-0-0-1-0-0-1-3-3--1-3-4-3-1-0-1-3-4-3-1--|
   . . . . . . . . .                        . . .





Break:

D|---------------------------------------------------|
A|---------------------------------------------------|
F|---------------------------------------------------|
C|---------------------------------------------------|
G|-0--1--4--3--0--3--6--5--0--1--4--3--0--3--6--5----|
C|-0--1--4--3--0--3--6--5--0--1--4--3--0--3--6--5----|   
   .  .  .  .  .  .  .  .  .  .  .  .  .  .  .  .     


D|---------------------------------------------------|
A|---------------------------------------------------|
F|---------------------------------------------------|
C|---------------------------------------------------|
G|-0--1--4--3--0--3--6--5--0--1--4--3--0--3--6--5----|
C|-0--1--4--3--0--3--6--5--0--1--4--3--0--3--6--5----|   
  

                 

       
D|-------------------------------------------------------------|
A|-------------------------------------------------------------|
F|-------------------------------------------------------------|
C|-------------------------------------------------------------|
G|-------------------------------------------------------------|
C|-0-0-0-0--0-0-0--0-333-666-555-0-0-0-0--0-0-0--0-111-444-333-|   
   . . . .  . . .  . ... ... ... . . . .  . . .  . ... ... ... 





Bloodsport rulez!!!
www.myspace.com/bloodsporthardcore
Tap to rate this tab
# A B C D E F G H I J K L M N O P Q R S T U V W X Y Z