Song name
# A B C D E F G H I J K L M N O P Q R S T U V W X Y Z

Bloodsport - Rise Or Fall tab

-------------------------------------------------------------------------------
			  Rise Or Fall - Bloodsport
-------------------------------------------------------------------------------

ARTIST   : Bloodsport
SONG     : Rise Or Fall
ALBUM    : Imprisonment
TABBED BY: h8urlife
TUNING   : C G C F A D




Intro:

D|------------------|
A|------------------|
F|------------------|
C|------------------|
G|------------------|
C|-0-1-3-4-0-1-4-3--|
   . . . . . . . .   




Verse:
             (6x)                  (1x)
D|-----------------------------|-----------|
A|-----------------------------|-----------|
F|-----------------------------|-----------|
C|-----------------------------|-----------|
G|-----1--1--1--1--1---1-3-3-3-|--1--3--2--|
C|-0-0-10-10-10-10-10--1-3-3-3-|--1--3--2--|
   . .  .  .  .  .  .         


Before:

D|-------------------|
A|-------------------|
F|-------------------|
C|-------------------|
G|-0~---1-3--3-3-2-2-|
C|-0~---1-3--3-3-2-2-|
   
       



D|------------------------------------------------------------------|
A|------------------------------------------------------------------|
F|------------------------------------------------------------------|
C|------------------------------------------------------------------|
G|------------------------------------------------------------------|
C|-000-000-000-000-111-111-333-222-000-000-000-000-111-111-333-222--|
   ... ... ... ... ... ... ... ... ... ... ... ... ... ... ... ...    


D|----------------------------------------------------------|
A|----------------------------------------------------------|
F|----------------------------------------------------------|
C|----------------------------------------------------------|
G|---------------------------------------------0--1--3--2---|
C|-000-0--000-0--111-111-333-222-000-0--000-0--0--1--3--2---|
   ... .  ... .  ... ... ... ... ... .  ... .  .  .  .  .                   





Verse:
             (6x)                  (1x)
D|-----------------------------|-----------|
A|-----------------------------|-----------|
F|-----------------------------|-----------|
C|-----------------------------|-----------|
G|-----1--1--1--1--1---1-3-3-3-|--1--3--2--|
C|-0-0-10-10-10-10-10--1-3-3-3-|--1--3--2--|
   . .  .  .  .  .  .  




Before:

D|-------------------|
A|-------------------|
F|-------------------|
C|-------------------|
G|-0~---1-3--3-3-2-2-|
C|-0~---1-3--3-3-2-2-|
   



D|------------------------------------------------------------------|
A|------------------------------------------------------------------|
F|------------------------------------------------------------------|
C|------------------------------------------------------------------|
G|------------------------------------------------------------------|
C|-000-000-000-000-111-111-333-222-000-000-000-000-111-111-333-222--|
   ... ... ... ... ... ... ... ... ... ... ... ... ... ... ... ...    


D|----------------------------------------------------------|
A|----------------------------------------------------------|
F|----------------------------------------------------------|
C|----------------------------------------------------------|
G|---------------------------------------------0--1--3--2---|
C|-000-0--000-0--111-111-333-222-000-0--000-0--0--1--3--2---|
   ... .  ... .  ... ... ... ... ... .  ... .  .  .  .  .  





Then:

D|-------------------------------------------------------------------|
A|-------------------------------------------------------------------|
F|-------------------------------------------------------------------|
C|-5-4-------------------------------5-4-----------------------------|
G|-3-2-----4-1-----------------------3-2-----4-1---------------------|
C|-----0-0-4-1-0-0-0-0-0-0-0-0-0-0-0-----0-0-4-1-0-0-111-111-111-111-|
       . .     . . . . . . . . . . .     . .     . . ... ... ... ...  






Outro:

D|----------------------------------------------|
A|----------------------------------------------|
F|----------------------------------------------|
C|----------------------------------------------|
G|-0-0----0-0------0-0----0-0-6-5-0-3-0-1-------|
C|-0-0----0-0------0-0----0-0-6-5-0-3-0-1-------|
   . .    . .      . .    . . 





Bloodsport rulez!!!
www.myspace.com/bloodsporthardcore 
Tap to rate this tab
# A B C D E F G H I J K L M N O P Q R S T U V W X Y Z