Song name
# A B C D E F G H I J K L M N O P Q R S T U V W X Y Z

Bloody Irish Boys - Beer Is Good Beer Is Great tab

Help us improve GuitareTab! Take a short survey!
-----------------------------------------------------------------------------
	"Beer is Good, Beer is Great" by Bloody Irish Boys
-----------------------------------------------------------------------------
Tabbed by: Rancidiscatchy
Email: Rancidfan81@AOL.com
http://www.thebloodyirishboys.com/

OOOOOOOOOOOOOOOOO chunky
  Shpiel 1:
e|---------------------------------------------------------------------------|
B|---------------------------------------------------------------------------|
G|----------------------4-4-4-4---6-6-6-6------------------------------------|
D|--4-4-4-4---6-6-6-6---4-4-4-4---6-6-6-6------------------------------------|
A|--4-4-4-4---6-6-6-6---2-2-2-2---4-4-4-4------------------------------------|
E|--2-2-2-2---4-4-4-4--------------------------------------------------------|

   Shpiel 2:
e|---------------------------------------------------------------------------|
B|---------------------------------------------------------------------------|
G|--------4-4-4-------6-6-6--------------------------------------------------|
D|--4-4-4-4-4-4-4-4-4-6-6-6--------------------------------------------------|
A|--4-4-4-2-2-2-4-4-4-4-4-4--------------------------------------------------|
E|--2-2-2-------2-2-2--------------------------------------------------------|

 Order:
Shpiel 1 x6
Shpiel 2 x1
Shpiel 1 x9
Shpiel 2 x1
Shpiel 1 x15
Shpiel 2 x1
Shpiel 1 x9
End on F# (244xxx)

 This is my first tab btw
=============================================================================
Related for Beer Is Good Beer Is Great tab