Song name
# A B C D E F G H I J K L M N O P Q R S T U V W X Y Z

Blowback - Autumn Leaf tab

-------------------------------------------------------------------------------
                             Autumn Leaf - Blowback
-------------------------------------------------------------------------------
Tabbed by: Jeremy Goddard
E-mail:jeremygoddard@gmail.com

Tuning:Dropped D

Main Riff:

e|---------------------------------------------------------------------------|
B|---------------------------------------------------------------------------|
G|---------------------------------------------------------------------------|
D|5-5---5----5--7/8-7/8-7/8--4-3--0-1-3--0-4-3--0-1-3------------------------|
A|3-3-0-3-0--3--5/6-5/6-5/6--4-3--0-1-3--0-4-3--0-1-3------------------------|
E|---------------------------4-3--0-1-3--0-4-3--0-1-3------------------------|


2nd Riff

e|---------------------------------------------------------------------------|
B|---------------------------------------------------------------------------|
G|---------------------------------------------------------------------------|
D|5-5-5-5-5-5/8-8-88-8/10-10-10/11-11-10/11-11-10----------------------------|
A|3-3-3-3-0-3/6-6-66-6/8--8--8/-9--9--8/-9--9--8-----------------------------|
E|---------------------------------------------------------------------------|


3rd Riff

e|---------------------------------------------------------------------------|
B|---------------------------------------------------------------------------|
G|5-3--5---------5---3---------3---------------------------------------------|
D|-----------------------5-3-5-----------------------------------------------|
A|---------3-----------------------------------------------------------------|
E|---------------------------------------------------------------------------|

I haven't quite got the solo down yet, the 3rd riff is a good start.  


************************************

| /   slide up
| \   slide down
| h   hammer-on
| p   pull-off
| ~   vibrato
| +   harmonic
| x   Mute note
| b   Bend
| pb  Pre-bend
| br  Bend release
| pbr Pre-bend release
| brb Bend release bend
Tap to rate this tab
 
# A B C D E F G H I J K L M N O P Q R S T U V W X Y Z