Song name
# A B C D E F G H I J K L M N O P Q R S T U V W X Y Z

Blowsight - Bandit For Life tab

OFFICIAL SITE- http://www.blowsight.com/

 Bandit For Life                                  


                                                                       Blowsight
Lead
     PM   PM PM PM   PM PM    PM   PM PM PM PM PM PM    PM   PM PM PM   PM PM  
     Q    E  E  Q    E  E     Q    E  E  E  E  E  E     Q    E  E  Q    E  E   
D||------------------------|-------------------------|------------------------|
A||------------------------|-------------------------|------------------------|
F||------------------------|-------------------------|------------------------|
C||---------------------5--|--7----7--8--7--5--------|---------------------5--|
G||--5----5--7--8----8-----|-------------------8--7--|--5----5--7--8----8-----|
C||------------------------|-------------------------|------------------------|
 
 
  PM   PM   PM PM PM  PM     PM   PM PM PM   PM PM    PM   PM PM PM PM PM PM  
  Q    Q    E  E  E   E      Q    E  E  Q    E  E     Q    E  E  E  E  E  E   
--------------------------|------------------------|-------------------------|
--------------------------|------------------------|-------------------------|
-------7----6--7--6--(7)--|------------------------|-------------------------|
--7-----------------------|---------------------5--|--7----7--8--7--5--------|
--------------------------|--5----5--7--8----8-----|-------------------8--7--|
--------------------------|------------------------|-------------------------|
 
 
  PM   PM PM PM   PM PM                                                  
  Q    E  E  Q    E  E     Q    Q    Q    Q       Q    E  E  Q    E  E   
------------------------|----------------------|------------------------|
------------------------|----------------------|------------------------|
------------------------|----------------------|------------------------|
---------------------5--|----------------------|------------------------|
--5----5--7--8----8-----|--7----5----3----2----|--0----0--2--3----3--5--|
------------------------|--7----5----3----2----|--0----0--2--3----3--5--|
 
 
  Q    E  E  E  E  E  E     Q    E  E  Q    E  E     Q    Q    E  E  E   E    
-------------------------|------------------------|--------------------------|
-------------------------|------------------------|--------------------------|
-------------------------|------------------------|-------7----6--7--6--(7)--|
-------------------------|------------------------|--------------------------|
--7----7--8--7--5--3--2--|--0----0--2--3----3--5--|--7----5----4--5--4--(5)--|
--7----7--8--7--5--3--2--|--0----0--2--3----3--5--|--7-----------------------|
 
 
  Q    E  E  Q    E  E     Q    E  E  E  E  E  E     Q    E  E  Q    E  E   
------------------------|-------------------------|------------------------|
------------------------|-------------------------|------------------------|
------------------------|-------------------------|------------------------|
------------------------|-------------------------|------------------------|
--0----0--2--3----3--5--|--7----7--8--7--5--3--2--|--0----0--2--3----3--5--|
--0----0--2--3----3--5--|--7----7--8--7--5--3--2--|--0----0--2--3----3--5--|
 
 
  Q    Q    Q    Q       Q    Q    Q    Q       Q    Q    Q    E  E   
----------------------|----------------------|-----------------------|
----------------------|----------------------|-----------------------|
----------------------|----------------------|-----------------------|
----------------------|----------------------|-----------------------|
--6----2----5----3----|--0-------------------|--------------------6--|
--6----2----5----3----|--0-------------------|--------------------6--|
 
 
                                   |--3--|  |--3--|   
  Q    Q    Q    Q       Q    Q    E  E  E  E  E  E   
----------------------|------------------------------|
----------------------|------------------------------|
----------------------|------------------------------|
----------------------|------------------------------|
--0-------------------|------------------------------|
--0-------------------|------------0--3--3--0--3--3--|
 
 
  |--3--|  |--3--|  |--3--|  |--3--|     |--3--|  |--3--|  |--3--|  |--3--|   
  E  E  E  E  E  E  E  E  E  E  E  E     E  E  E  E  E  E  E  E  E  E  E  E   
--------------------------------------|--------------------------------------|
--------------------------------------|--------------------------------------|
--------------------------------------|--------------------------------------|
--------------------3-----------------|--------------------3-----------------|
--5--5--5--5--5--5-----5--5--5--5--5--|--3--5--5--5--5--5-----5--5--5--5--5--|
--------------------------------------|--------------------------------------|
 
 
  |--3--|  |--3--|  |--3--|  |--3--|                          
  E  E  E  E  E  E  E  E  E  E  E  E     Q    Q    Q    Q     
--------------------------------------|----------------------|
--------------------------------------|----------------------|
--------------------------------------|----------------------|
--------------------3-----------------|----------------------|
--3--5--5--5--5--5-----5--5--5--5--5--|--7----8----5----3----|
--------------------------------------|--7----8----5----3----|
 
 
  Q    Q    Q    Q       Q    E  E  Q    E  E     Q    E  E  E  E  E  E   
----------------------|
----------------------|
----------------------|
--6----2----5----3----|
--6----2----5----3----|
--6----2----5----3----|
 
Tap to rate this tab
 
# A B C D E F G H I J K L M N O P Q R S T U V W X Y Z