Song name
# A B C D E F G H I J K L M N O P Q R S T U V W X Y Z

Bludgeon - Smoke Screen tab

Bludgeon
Smoke screen
Crucify the priest
Tabbed by kevin cruz

Bludgeon is an underground metal band.
THey sound very good.

Tunning: Tune all strings down half step (E-Flat)

|----------------------------------|
|----------------------------------|
|----------------------------------| 4x
|----------------2-----------------|
|--2-3-2---3-2---0---3--2-3-2--5-3-|
|--0-1-0---1-0-----0-1--0-1-0--3-1-|
   . .     .       .    . .

|--------------------|
|--------------------|
|--------------------|
|--------------------| 2x
|--3--2--5--3--2--5--|
|--1--0--3--1--0--3--|

|---------------------------------|
|---------------------------------|
|---------------------------------|
|---------------------------------| 4x
|-3---------------2-------------5-|
|-1-1-1-1-1-1-1-2-0-0-0-0-0-0-0-3-|
    . . . . . . .   . . . . . .  

That's all i can figure out right now
Tap to rate this tab
 
# A B C D E F G H I J K L M N O P Q R S T U V W X Y Z