Song name
# A B C D E F G H I J K L M N O P Q R S T U V W X Y Z

Bludgeon - Tortured Through Lies tab

Bludgeon 
Tortured through lies
Crucify the Priest
Tabbed by kevin Cruz

Tunning: Tune all strings down 1/2 step (Eb)

|-----------------------------------------------------|
|-----------------------------------------------------|
|-----------------------------------------------------|
|-----------------------------------------------------| 2x
|-2-2--222-----2-2--222-----2-2--222-----2-2--222-----|
|-0-0--000-1-1-0-0--000-1-3-0-0--000-1-1-0-0--000-1-3-|
  . .  ... . . . .  ... . . . .  ... . . . .  ... . .

|-----------------------------------------------------|
|-----------------------------------------------------|
|-----------------------------------------------------|
|-----------------------------------------------------| 2x
|-2-2--2-2-----2-2--2-2-----2-2--2-2-----2-2--2-2-----|
|-0-0--0-0-1-1-0-0--0-0-1-3-0-0--0-0-1-1-0-0--0-0-1-3-|
  .    .   . . .    .   . . .    .   . . .    .   . .

|----------------------------------------|
|----------------------------------------|
|----------------------------------------|
|----------------------------------------| 8x
|--------------------------------------4-|
|-0000-6666-5555-2-5-2--0000-6666-5555-2-|
                 . . .
Tap to rate this tab
# A B C D E F G H I J K L M N O P Q R S T U V W X Y Z