Song name
# A B C D E F G H I J K L M N O P Q R S T U V W X Y Z

Blue Cheer - Out Of Focus tab

Help us improve GuitareTab! Take a short survey!
-------------------------------------------------------------------------------
			     Out of Focus - Blue cheer
-------------------------------------------------------------------------------
Tabbed by:bryon 	
Email:bryon_666@hotmail.com

Standard Tuning

LEGEND
h - hammer on
p - pull off
b - bend string up
r - release bend
/ - slide up
\ - slide down
~ - vibrato

Part 1 (Verse)  
e|-----------------------------------------------|
B|---2------5------2/5\2/5\2----5---7---5--7-----|
G|---2------5------2/5\2/5\2----5---7---5--7-----|
D|---2------5------2/5\2/5\2----5---7---5--7-----|
A|-----------------------------------------------|
E|-----------------------------------------------|

Part 2
e|----------------------------------------|
B|---3--------5--------3--------0---------|
G|---4--------6--------4--------1---------|
D|---5--------7--------5--------2---------|
A|------------------------------2---------|
E|---3--------5--------3--------0---------|

Part3                                                   Part 3.5
e|---10b12r10---8--------------------------------------|------------------------|
B|-----------------10--10p8h10p8---5---3---------------|------------------------|
G|-----------------------------------------5---2~~~----|---0--------------------|
D|-----------------------------------------------------|------2---0-------------|
A|-----------------------------------------------------|--------------3---0~----|
E|-----------------------------------------------------|------------------------|

Part 4
|-----------------------------------------------------|
|--0--------------------------------------------------|
|--1------------------------5--7--------9-------------|
|--2-----------5--7---------5--7--------9----------9--|
|--2-----------5--7---------3--5--------7----------9--|
|--0-----------3--5--------------------------------7--|


Part 1(4x)
Part 2 & Part 3
Part 1(4x)
Part 2
Part 3
Part 1(4x)
Part 2 & Part 3
Part 4
Solo
Part 2 & Part 3
Part 4
Part 1(4x)
Part 2 & Part 3
PArt 3.5

I do not know the solo, sorry I am not that good, also you will have to figure
out the rhythm yourself, any comments camplaints, OR if you know any other blue
cheer tabs(or where to find any), please email me at bryon_666@hotmail.com.
Related for Out Of Focus tab