Blue Cheer - Out Of Focus tab

Blue Cheer - Out of Focus
From the 1967 album "Vincebus Eruptum".
Standard tuning

Legend:

\ = Slide down
/ = Slide up
~ = Distortion/Let ring
^ = Bend

----------------------------------------------------------------------------


|--------------------------------------------------------|
|--------------------------------------------------------|
|-----------------5----5--7/--7/5-7--7/5-----------------|
|-----------------5----5--7---7/5-7--7/5-----------------|
|---------0--7--7----7--------------------7--------------|
|--17\---------------------------------------------------|


|--------------------------------------------------------|
|--------------------------------------------------------|
|--5--5--7---7--7--9---5--5--7---5~~---------------------|
|--5--5--7---7--7--9---5--5--7---5~~---------------------|
|--3--3--5---5--5--7---3--3--5---3~~---------------------|
|--------------------------------------------------------|


|-----------------------------------------------------------|
|--15^--15-13-----------------------------------------------|
|---------------12-14-12-14-12------------------------------|
|------------------------------14-12-10---------------------|
|----------------------------------------10-12-10-12\-------|
|-----------------------------------------------------------|


|-----------------------------------------------------------|
|-----------------------------------------------------------|
|--5-5-5-5-6-7-7-7-7-7-8-9-9-9-9-9-10-10-10-10-------9------|
|--5-5-5-5-6-7-7-7-7-7-8-9-9-9-9-9-10-10-10-10-------9------|
|--3-3-3-3-4-5-5-5-5-5-6-7-7-7-7-7-8--8--8--8--------7------|
|-----------------------------------------------17\---------|


===========================================================================
For the solo, improvise in C Pentatonic and use heavy distortion, it's kinda easy to 
out but I'm too lazy to tab it here.

Enjoy, and please rate it.
Tap to rate this tab
 
# A B C D E F G H I J K L M N O P Q R S T U V W X Y Z