Blue Cheer - Second Time Around tab

Second Time Around - Blue Cheer
From their 1967 album "Vincebus Eruptum".
Standard tuning

====================================================

|----------------------------------|
|----------------------------------|
|----------------------------------|
|-----------------------8-10-------|
|--8h10--8h10--8h10--10------------|
|----------------------------------|




|----------------------------------|
|----------------------------------|
|----------------------------------|
|--8h10---8h10--8h10--10---8-10----|
|--8h10---8h10--8h10--10-----------|
|--8------8-----8-----8------------|
|
|
|
|----------------------------------|
|----------------------------------|
|----------------------------------|
|--6h8---6h8---6h8---8---6-8-------|
|--6h8---6h8---6h8---8-------------|
|--6-----6-----6-----6-------------|


|--------------------------||--------|
|------6-8^--8^r-6---------||--------|
|--7~~---------------7~~---||--------|
|--------------------------||--10\---|
|--------------------------||--------|
|--------------------------||--------|



Solo: C Blues Scale

Use heavy distortion, vibrato and tremolos.

================================================
Tap to rate this tab
 
# A B C D E F G H I J K L M N O P Q R S T U V W X Y Z