Blue Cheer - Second Time Around tab

SECOND TIME AROUND
BLUE CHEER
VINCEBUS ERUPTUM
1967
STANDARD TUNING (E A D G B E)


==========================================
LEGEND:
'
H = HAMMER ON
^ = BEND
^R= BEND AND RELEASE
~ = DISTORTION/LET RING

===================================================================

|-----------------------------|
|--------------------3---5----|
|--------------------3---5----|
|--3h5--3h5--3h5--5--3---5----|
|-----------------------------|
|-----------------------------|


|----------------------------|
|-------------------3--5-----|
|--3h5--3h5--3h5----3--5-----|
|--3h5--3h5--3h5----3--5-----|
|--3h5--3h5--3h5-------------|
|----------------------------|


|--------------------------|
|-------6-8^-8^r-6---------|
|--7~~--------------7~~----|
|--------------------------|
|--------------------------|
|--------------------------|



Solos: Improvise in C Blues Scales and use heavy distortion.


That's it.
Tap to rate this tab
 
# A B C D E F G H I J K L M N O P Q R S T U V W X Y Z