Guitaretab - guitar tabs
Song name
# A B C D E F G H I J K L M N O P Q R S T U V W X Y Z

Blue Cinder - Wizards Cave tab

e|---------------------------------------------------------|
B|---------------------------------------------------------|
G|---------------------------------------------------------|
D|------11------11------11--11------11-----11-----11--11---|
A|----9-------9-------9------9----9------9------9------9---|
E|-10------10------10-------10--0------0------0--------0---|
[ Tab from: http://www.guitaretab.com/b/blue-cinder/28484.html ]
e|---------------------------------------------------------|
B|---------------------------------------------------------|
G|---------------------------------------------------------|
D|------11------11------11--11--11-11-11-11-11-------------|
A|----0-------0-------0------0---0--0--0--0--0-------------|
E|--0-------0-------0--------0---0--0--0--0--0-------------|

e|---------------------------------------------------------|
B|---------------------------------------------------------|
G|---------------------------------------------------------|
D|-11-11-11-11-11-11--11-11-11-11-11-11--11----------------|
A|--9--9--9--9--9--9---9--9--9--9--9--9---9----------------|
E|--0--0--0--0--0--0--10-10-10-10-10-10---0----------------|

e|---------------------------------------------------------|
B|---------------------------------------------------------|
G|---------------------------------------------------------|
D|------11------11------11--11-----------------------------|
A|----9-------9-------9------9-----------------------------|
E|-10------10------10-------10-----------------------------|
Wizards Cave chords by Blue Cinder