Song name
# A B C D E F G H I J K L M N O P Q R S T U V W X Y Z

Blue Collar Special - Dont Wait tab

|==========================|
|                          |
|       Don't Wait         |
|    Blue Collar Special   |
|                          |
|==========================|

++Check out my tabs of 'Come Again' and 'Waste My Time' by BCS! ;)++

=====================
*Backround Info*
There are at least two different recordings of this song. One is on the
album "Concrete Waves" and appeared in the game Tony Hawk's Underground
(this is the more well-known version). The other is on the album
"74 More Minutes Underground" (a multi-artist album distributed by Northeast
Records), and is slightly longer with a number of small differences.

I'll be tabbing the version from Concrete Waves.
=====================


This is probably my favourite song :D so chances are I'll be updating this
tab occasionally :)


Nonetheless, Enjoy!

Don't forget to rate and comment! Corrections are also much appreciated! :D

====================

h   = hammer on/off
p   = pull off
/   = slide
b   = bend
<#> = harmonics ("#" represents the fret on which it is played)
(#) = let the note ring
PM  = palm mute the indicated section(s)
x   = deaden string
>   = accent (emphasis on the note)

Standard Tuning (eBGDAE)

=====================


Intro  Part 1
Guitar 1  x4
e|----------------------------|
B|----------------------------|
G|---9-x-7-x-6-x-7--6h7p6-----|
D|---7-x-7-x-7-x-7--------7---|
A|----------------------------|
E|----------------------------|


Guitar 2 (during second play-through)
e|------------------|
B|---10--(10)-------|
G|---9---(9)--------|
D|---7---(7)--------|
A|---7---(7)--------|
E|------------------|

Then this  x2
e|----------------------------|
B|----------------------------|
G|----------------------------|
D|---7-x--7-x--7-x--7-x-7-7---|
A|---7-x--7-x--7-x--7-x-7-7---|
E|---5-x--5-x--5-x--5-x-5-5---|


Part 2
Guitar 1   (let notes ring this time)
e|--------------------------------------------|
B|--------------------------------------------|
G|---9---7---6---7--6h7p6------9---7---6------|
D|---7---7---7---7--------7----7---7---7---7--|
A|-----------------------------------------0--|
E|--------------------------------------------|


Guitar 2
e|--------------------------------------------|
B|---10-10-10-10-10-10-10-10-10-10-10-10------|
G|---9--9--9--9--9--9--9--9--9--9--9--9--x----|
D|---7--7--7--7--7--7--7--7--7--7--7--7--x-7--|
A|---------------------------------------x-7--|
E|-----------------------------------------5--|
(twelve strums on 7-9-10)


Guitar 1
e|------------------|
B|------------------|
G|---9---(9)--------|
D|---9---(9)--------|
A|---7---(7)--------|
E|------------------|

=========================


Verse Part 1
Guitar 2             >       >       >
e|-----------------------------------------------------------------|
B|-----------------------------------------------------------------|
G|-------------------9---9-9-6-6-6-6-7---7-7-7-7-7-7---------------|
D|---7---7-7-7-7-7-7-9---9-9-6-6-6-6-7---7-7-7-7-7-7---------------|
A|---7---7-7-7-7-7-7-7---7-7-4-4-4-4-5---5-5-5-5-5-5-5-4-4-5-4-4---|
E|---5---5-5-5-5-5-5-----------------------------------------------|
      PM|-------------------------------------------------------|
Part 2
Guitars 1 & 2
e|-----------------------------------------------------------------|
B|-----------------------------------------------------------------|
G|-----------------------9-------9-------7-------7-----------------|
D|-------7-------7-------9-------9-------7-------7-------7-------7-|
A|-------7-------7---7-7-7---7-7-7---5-5-5---5-5-5-------7-------7-|
E|---5-5-5---5-5-5-----------------------------------5-5-5---5-5-5-|
  PM|---|   |---|   |---|   |---|   |---|   |---|   |---|   |---|

*Guitar 2 begins to repeat Part 2 before the chorus*
Guitar 1
e|-------------------------|
B|---10-10---10-10-10-10---|
G|---9--9----9--9--9--9----|
D|---7--7----7--7--7--7----|
A|-------------------------|
E|-------------------------|
      
=========================


Chorus 1
Guitars 1 & 2   x2
e|------------------------------------|
B|------------------------------------|
G|--9-9-9-9-7-7-7-7x7-7---7x----------|
D|--9-9-9-9-7-7-7-7x7-7---7x7-7-7-7---|
A|--7-7-7-7-5-5-5-5x5-5---5x7-7-7-7---|
E|--------------------------5-5-5-5---|

=========================


Bridge x2
Guitar 1 (I think)
     > >   >   >         > >
e|---5-----5---5-----5---5----(5)--------|
B|-----5-----5-----5---5---5-------(5)---|
G|---------------------------------------|
D|---------------------------------------|
A|---------------------------------------|
E|---------------------------------------|

Guitar 2 plays Verse - Part 1 during bridge.

=========================

Verse Part 1  x2

Verse Part 2  x2

====
Chorus 2:

Chorus 1  x4

One the third and fourth plays of this chorus, Guitar 1 plays
e|--12-12-12-12-10-10-10-10-10-10-10-10---------------|
B|--12-12-12-12-10-10-10-10-10-10-10-10-10-10-10-10---|
G|--9--9--9--9--7--7--7--7--7--7--7--7--9--9--9--9----|
D|--------------------------------------7--7--7--7----|
A|----------------------------------------------------|
E|----------------------------------------------------|

=========================


Solo
Guitar 1   x2
e|-------------------------------------------|
B|-------5-----------5-----------5-----------|
G|---7b9===9-----7b9===9=9---7b9===9-7-6-----|
D|---------------------------------------7---|
A|-------------------------------------------|
E|-------------------------------------------|
(the "=" signifies to keep the note bent to that pitch)

Guitar 2  x2
e|------------------------------------------------------------|
B|-----------9-9-9-----------9-9-9-----------9-9-9------------|
G|---7---7---9-9-9---7---7---9-9-9---7---7---9-9-9---7-7-7-7--|
D|---7---7---7-7-7---7---7---7-7-7---7---7---7-7-7---7-7-7-7--|
A|---5---5-----------5---5-----------5---5-----------5-5-5-5--|
E|------------------------------------------------------------|

=========================

Guitar 2 plays Bridge

====

Bass only for Part 1 of Verse 3


Then Guitar 1 plays Intro x4

Meanwhile Guitar 2 plays
e|------------------|
B|------------------|
G|---9-////1--------|
D|---9-////1--------|
A|------------------|
E|------------------|
over and over again (listen closely, I hardly noticed it at first).
It may be a whammy bar but it sounds more like a slide to me, so judge
for yourself :)

====

Chorus 3 is the same as Chorus 2

Guitar 1 plays the Solo again

End with both guitars on
e|-----------------|
B|---10--///-6-----|
G|---9---///-5-----|
D|---7---///-3-----|
A|-----------------|
E|-----------------|

=============================

I hope that helped! Remember to comment and rate! :D
Tap to rate this tab
# A B C D E F G H I J K L M N O P Q R S T U V W X Y Z