Song name
# A B C D E F G H I J K L M N O P Q R S T U V W X Y Z

Blue Felix - Middle Finger Up tab

Middle Finger Up - Blue Felix


Requiers: 22 String Guitar
Tuning: Drop B (B - F# - B - E - G# - C#)
2 Guitars


* = Palm Mute
/ = Slide/Pick Scratch

The song will be easier to play if you use alternative picking during the vers.


Intro:

1st Guitar:
|----------------------------------------------------------------------||
|----------------------------------------------------------------------||
|-77777-1010101010-77777------------77777-1010101010-77777-------------||
|-55555-8-8-8-8-8--55555-8-10-11-10-55555-8-8-8-8-8--55555-8-10-11-10--||
|-55555-8-8-8-8-8--55555-8-10-11-10-55555-8-8-8-8-8--55555-8-10-11-10--||
|-55555-8-8-8-8-8--55555-8-10-11-10-55555-8-8-8-8-8--55555-8-10-11-10--||

2nd Guitar:
|----------------------------------------------------------------------||
|----------------------------------------------------------------------||
|----------------------------------------------------------------------||
|------------------------8-10-11-10------------------------8-10-11-10--||
|------------------------8-10-11-10------------------------8-10-11-10--||
|------------------------8-10-11-10------------------------8-10-11-10--||

Chrous:

Both Guitars:
|-------------------------------||
|-------------------------------||
|-7------10~-7------------------||
|-5------8~--5------8-10-11-10--||
|-5------8~--5-555558-10-11-10--||
|-5-555558~--5-555558-10-11-10--||
    *****


Vers:

Both Guitars:
|--------------------------------------|-You also can play the----||
|--------------------------------------|-accentuated strokes as:--||
|--------------------------------------|--------------------------||
|--------------------------------------|-5---5-...----------------||
|--------------------------------------|-5---5-...----------------||
|-5-555-555-555-555-55588101011111010--|-5-555-...----------------||
    **  **  **  **  ** *** * * * * *       **


Bridge:

Both Guitars:
|--------------------------------------------------------------------------|
|--------------------------------------------------------------------------|
|--------------------------------------------------------------------------|
|--------------------------------------------------------------------------|
|-55-55-55-55558888-55-55-55-55558101110-55-55-55-55558888-55-55-55--Short-|
|-55-55-55-55558888-55-55-55-55558101110-55-55-55-55558888-55-55-55--Break-|
  ** ** ** ******** ** ** ** ****** * *  ** ** ** ******** ** ** **

|-----------------------------------------------------------------------------------------------||
|-----------------------------------------------------------------------------------------------||
|-----------------------------------------------------------------------------------------------||
|-//////////////-55-55-55-55558888-55-55-55-55558101110-55-55-55-55558888-55-55-55-55558101110--||
|-/Pick Scratch/-55-55-55-55558888-55-55-55-55558101110-55-55-55-55558888-55-55-55-55558101110--||
|-//////////////-55-55-55-55558888-55-55-55-55558101110-55-55-55-55558888-55-55-55-55558101110--||
                 ** ** ** ******** ** ** ** ****** * *  ** ** ** ******** ** ** ** 
****** * *

Ending:

Both Guitars:
|--------|------------------------------------------||
|--------|------------------------------------------||
|--------|------------------------------------------||
|--------|-8-10-11-10-8-10-11-10-5/-----------------||
|-Chorus-|-8-10-11-10-8-10-11-10-5/very fast slide--||
|--------|-8-10-11-10-8-10-11-10-5/-----------------||


That's really it, that's the whole song. I'm not quite sure, but I guess they use a 
different tuning but I prefer drop b, because that gives you a much heavier and thicker sound.

Have fun & keep on rockin'.
Benn x Lody
Tap to rate this tab
# A B C D E F G H I J K L M N O P Q R S T U V W X Y Z