Guitaretab - guitar tabs
Song name
# A B C D E F G H I J K L M N O P Q R S T U V W X Y Z

Blue Foundation - Eyes On Fire tab

Tabbed by: Eleda.

Intro

E-------------------------------------|
B-------------------------------------|
G-------------------------------------| (3x)
D-------------------------------------|
A--------6-------4--2-----------2-----|
E--6--6-----2--2-------------2-----2--|


                             B
E-------------------------------------|
B-------------------------------------|
G----------------------------4-4-4----|
D----------------------------4-4-4----|
A--------6-------4--2--------2-2-2----|
E--6--6-----2--2----------------------|

Haa haa haa haa

E-------------------------------------|
B-------------------------------------|
G-------------------------------------| (3x)
D-------------------------------------|
A--------6-------4--2-----------2-----|
E--6--6-----2--2-------------2-----2--|


                             B
E-------------------------------------|
B-------------------------------------|
G----------------------------4-4-4----|
D----------------------------4-4-4----|
A--------6-------4--2--------2-2-2----|
E--6--6-----2--2----------------------|


I'll seek you out...

E-------------------------------------|
B-------------------------------------|
G-------------------------------------| (3x)
D-------------------------------------|
A--------6-------4--2-----------2-----|
E--6--6-----2--2-------------2-----2--|


                             B
E-------------------------------------|
B-------------------------------------|
G----------------------------4-4-4----|
D----------------------------4-4-4----|
A--------6-------4--2--------2-2-2----|
E--6--6-----2--2----------------------|


I will sooth your vein ..... (1.19)

  D#
E------------|
B------------|
G--8----8----|
D--8----8----|
A--6----6----|
E------------|


Youíll be waiting in vain...

E-------------------------------------|
B-------------------------------------|
G-------------------------------------|
D-------------------------------------|
A--------6-------4--2-----------2-----|
E--6--6-----2--2-------------2-----2--|

[ Tab from: http://www.guitaretab.com/b/blue-foundation/180980.html ]
I got nothing for you to gain...

E------------------------|
B------------------------|
G------------------------|
D------------------------|
A--------6-------4--2----|
E--6--6-----2--2---------|

Iím taking it slow ....(1.47)

   D#  F#   B   A#
E-------------------|
B-------------------|
G--8---11---4---3---|
D--8---11---4---3---|
A--6---9----2---1---|
E-------------------|

Shuffling the cards of your game...

   D#  F#   B
E---------------|
B---------------|
G--8---11---4---|
D--8---11---4---|
A--6---9----2---|
E---------------|

And just in time...

   D#  F#   B   A#
E-------------------|
B-------------------|
G--8---11---4---3---|
D--8---11---4---3---|
A--6---9----2---1---|
E-------------------|

Suddenly I will play my ace ...

   D#  F#   B
E---------------|
B---------------|
G--8---11---4---|
D--8---11---4---|
A--6---9----2---|
E---------------|

(Drums)

I wonít soothe your pain ...

      D#         F#            B
E------------------------------------------|
B------------------------------------------|
G--8-8-8-8--11-11-11-11--4-4-4-4-4-4-4-4---| (3x)
D--8-8-8-8--11-11-11-11--4-4-4-4-4-4-4-4---|
A--6-6-6-6--9--9--9--9---2-2-2-2-2-2-2-2---|
E------------------------------------------|

I got nothing for you to gain ...

   D#  F#   B
E-------------|
B-------------|
G--8--11--4---|
D--8--11--4---|
A--6--9---2---|
E-------------|

Chorus

Eyes on fire...

      D#        F#          B       A#
E------------------------------------------|
B------------------------------------------|
G--8-8-8-8--11-11-11-11--4-4-4-4--3-3-3-3--|
D--8-8-8-8--11-11-11-11--4-4-4-4--3-3-3-3--|
A--6-6-6-6--9--9--9--9---2-2-2-2--1-1-1-1--|
E------------------------------------------|

      D#         F#            B
E------------------------------------------|
B------------------------------------------|
G--8-8-8-8--11-11-11-11--4-4-4-4-4-4-4-4---|
D--8-8-8-8--11-11-11-11--4-4-4-4-4-4-4-4---|
A--6-6-6-6--9--9--9--9---2-2-2-2-2-2-2-2---|
E------------------------------------------|

The chords are pretty much the same so yea.. ;)
Related for Eyes On Fire tab