Song name
# A B C D E F G H I J K L M N O P Q R S T U V W X Y Z

Blue Foundation - Eyes On Fire tab

Hey guys, 
well this is my first tab and i'm pretty confident that its right cause i think 
ive heard this song like a hundred times :P
theres two guitar parts to this song and this is the non-riff guitar, that plays 
with the singer. :)
enjoy!



standard tuning (eBGDAE)


I'll seek you out, flay you alive. One more word and you won't survive. 

e--------6--4--2--2--4--6--------------------------------|
B--4--4--------------------4----4--4--2--2--2--7--4--4---|
G--------------------------------------------------------|
D--------------------------------------------------------|
A--------------------------------------------------------|
E--------------------------------------------------------|

And I'm not scared of your stolen power. I see right through you any hour.

e--------6--4--4--2--2--4--6-----------------------------|
B--4--4-----------------------4----4--4--2--2--7--4--4---|
G--------------------------------------------------------|
D--------------------------------------------------------|
A--------------------------------------------------------|
E--------------------------------------------------------|

I won't soothe your pain. I won't ease your strain.

e--------------------------------------------|
B--4-----------------------4-----------------|
G--------------------------------------------|
D--------------------------------------------|
A--------------------------------------------|
E--------------------------------------------|

You'll be waiting in vain. I got nothing for you to gain.

I'm taking it slow, feeding my flame. Shuffling the cards of your game.

e-----------6--4--2--4--6---------------------------------|
B--4--4--4-----------------4-------4--4--4--2--2--7--4----|
G---------------------------------------------------------|
D---------------------------------------------------------|
A---------------------------------------------------------|
E---------------------------------------------------------|

And just in time, in the right place, suddenly I will play my ace.

e--------6--4--2--4--6---------------------------------|
B--4--4-----------------4----4--4--4--4--2--2--7--4----|
G------------------------------------------------------|
D------------------------------------------------------|
A------------------------------------------------------|
E------------------------------------------------------|

I won't soothe your pain. I won't ease your strain.

You'll be waiting in vain. I got nothing for you to gain.


Eyes on fire, your spine is ablaze. Feeling any foe with my gaze

e-----6--4--4--2--2--4--6------------------------------------|
B--4-----------------------4----4--4--4--4--4--2--2--7--4----|
G------------------------------------------------------------|
D------------------------------------------------------------|
A------------------------------------------------------------|
E------------------------------------------------------------|

And just in time, in the right place, steadily emerging from grace.

e--------6--4--2--4--6---------------------------------|
B--4--4-----------------4----4--4--4--4--2--2--7--4----|
G------------------------------------------------------|
D------------------------------------------------------|
A------------------------------------------------------|
E------------------------------------------------------|

(Keyboard)

e--3--2--0----3--5--0-----3--2--0----3--5--0--------|
B----------------------3----------------------3-----|
G---------------------------------------------------| as many times 
D---------------------------------------------------| needed 
A---------------------------------------------------|
E---------------------------------------------------|

(During Drums)    (I'm pretty sure this is bass but oh well)

   
E--------------------------------------------------------------|
B--------------------------------------------------------------|
G--------------------------------------------------------------|   play as
D--------------------------------------------------------------|   times
A--------------------------------------------------------------|   needed 
E----11--11--11--11--14--14--14--14--7--7--7--7--7--7--7--7----|




Ah, Ah, Ah, Ah, Ah, Ah, Ah, Ah, Ah, Ah

Feeling any foe with my gaze,

Ah, Ah, Ah, Ah, Ah, Ah, Ah, Ah, Ah, Ah

Steadily emerging with grace.

Ah, Ah, Ah, Ah, Ah, Ah, Ah, Ah, Ah, Ah
E--------------------------------------------------------------|
B--------------------------------------------------------------|
G--------------------------------------------------------------|
D--------------------------------------------------------------|
A--------------------------------------------------------------|
E----11--11--11--11--14--14--14--14--7--7--7--7--7--7--7--7----|

Feeling any foe with my gaze,
E--------------------------------------------------------------|
B--------------------------------------------------------------|
G--------------------------------------------------------------|
D--------------------------------------------------------------|
A--------------------------------------------------------------|
E----11--11--11--11--14--14--14--14--7--7--7--7--7--7--7--7----|


Ah, Ah, Ah, Ah, Ah, Ah, Ah, Ah, Ah, Ah
E--------------------------------------------------------------|
B--------------------------------------------------------------|
G--------------------------------------------------------------|
D--------------------------------------------------------------|
A--------------------------------------------------------------|
E----11--11--11--11--14--14--14--14--7--7--7--7--7--7--7--7----|

Steadily emerging with grace.
Tap to rate this tab
 
# A B C D E F G H I J K L M N O P Q R S T U V W X Y Z