Song name
# A B C D E F G H I J K L M N O P Q R S T U V W X Y Z

Blue Foundation - Eyes On Fire tab

Song: Eyes On Fire                         |
Artist: Blue Foundation                    |
Tab By: Guilherme Marques - SikhanBrazil   |
                                           |
Youtube Link:                              |
http://www.youtube.com/watch?v=MS2DWS_wDkc |
-------------------------------------------|



Part 1:
  P.M
E|------------------------x-----------|
B|------------------------x-----------|
G|------------------------x-----------|
D|--------------------4---x-----------|
A|------6-------(4)---2---x----2------|
E|--6-6---6\(2)-----------x--2---2/---|



Part 2:
  "I'll (seek you out)--> Start here" 
E|----------------------------------------------------------|
B|----------------------------------------------------------|
G|--------/3--1-1------1-1/3--------------------------------|
D|------1---------4-4----------1-----1-1-1-1-1------1/4--1--|
A|----------------------------------------------4-4---------|
E|----------------------------------------------------------|

E|---------------|
B|---------------|
G|---------------|
D|---------------|
A|--/6-------/6--|
E|---------------|



Part 3:
  P.M                                       "I got nothing for you to gain"
E|-------------------------------------------|----------------------------|
B|-------------------------------------------|----------------------------|
G|-------------------------------------------|-------------------4--------|
D|--8-8-8-88--------------4-4-4-44-4-4-4-44--|-----8-------------2--------|
A|--6-6-6-66---4-4-4-44---2-2-2-22-2-2-2-22--|-----6------4---------------|
E|-------------2-2-2-22----------------------|------------2---------------|

   "Eyes  on   fire  Your spine is ablaze"
E|--------------------------------------------|
B|--------------------------------------------|
G|--8-8-8-88--------------4-4-4-44-3-3-3-44---|
D|--8-8-8-88---4-4-4-44---4-4-4-44-4-4-4-44---|
A|--6-6-6-66---4-4-4-44---2-2-2-22-2-2-2-22---|
E|-------------2-2-2-22-----------------------|



Part 4: "Solo"
E|-----------------------------------------|
B|-----------------------------------------|
G|--11~--10~\--/8~------/11~--/13~\--/8~---|
D|-----------------------------------------|
A|-----------------------------------------|
E|-----------------------------------------|



Part 5: "Following the voice"
E|------------------------|
B|------------------------|
G|--8-6-8-6---------------|
D|----------8-6---6/8-----|
A|--------------9-----6---|
E|------------------------|



----------------------|
Tag:                  |
                      |
P.M = Palm Mute       |
/ = Slide Up          |
\ = Slide Down        |
()= Let Ring          |
~ = Vibrato           |
x = Hit Strings Muted |
b = Bend              |
r = Release Bend      |
h = Hammer            |
p = Pull Off          |
                      |
----------------------|
Tap to rate this tab
 
# A B C D E F G H I J K L M N O P Q R S T U V W X Y Z