Song name
# A B C D E F G H I J K L M N O P Q R S T U V W X Y Z

Blue Foundation - Eyes On Fire tab

Blue Foundation: Eyes on Fire

Drop D tuning. Capo first fret


Intro:

E------------------------|
B------------------------|
G------------------------|
D----------------------3-|
A-0----------3---------1-|
D-0----------3-----------|
(Strumming patter not included)

E----------------------------------|
B----------------------------------|
G-------------------2p0-0--------0-|
D-------0h2---3p0----------3--3----|
A----0------0-----0-----1-----1----|
D-0-----------3--------------------|
 
E----------------------------------|
B----------------------------------|
G-------------------2p0-0----------|
D-------0h2---3p0----------3--3----|
A----0------0-----0-----1-----1----|
D-0-----------3--------------------|
 

Verse:

E------------------------------------|
B------------------------------------|
G----------2-----0-------------0-2---|
D-0--0--------------0-----0--3-----0-|
A-------0-----0--------0-----1-------|
D----0-----------3-------------------|
 "I  seek  you   out...."


E----------------------------|
B----------------------------|
G----------------------------|
D-------0--0-0-------3--0----|
A----0---------3--3-----1----|
D-0------------3-------------|


Chorus:

E------------------|
B------------------|
G----0--2----------|
D-3-----0------3---|
A-----------0------|
D-3-----0------3---|
 "I will soothe your pain..."

E-------------------------|
B-------------------------|
G-2--2--2--2--0-----------|
D---------------3---2--0--|
A-------------------------|
D-------0-----------------|
 "I've got nothin for you to gain..."


Bridge:

E----------------------------------|
B-3------1--3--1-------------------|
G-----------------2p0-----0--2-----|
D-0--------------------3--------0--|
A----------------------1-----------|
D-0--------------------------------|

E----------------------|
B----------------------|
G----------------------|
D--0--0-0------3--0----|
A--------3--3-----1----|
D--0-----3-------------|
 "Failin' any foe in my gaze..."
Tap to rate this tab
 
# A B C D E F G H I J K L M N O P Q R S T U V W X Y Z