Song name
# A B C D E F G H I J K L M N O P Q R S T U V W X Y Z

Blue Foundation - Eyes On Fire tab

These Are The Tabs and chords to this song: All The Other ones aren't very good so 
I hope this will help you:)
         
This First line is played through most the song:(Play With Mild Distortion)
      PM________________________________________________________________]
    I'll seek you out Flay You Alive / One more word and you wonít survive
CHORDS: Em     G      C                 Em      G     C
      E-----------------------------------------------------------------E
      B-----------------------------------------------------------------B
      G---------------------5-------5-----------------------5-------5---G
      D-----2-----5---------5-------5-------2-----5---------5-------5---D
      A-----2-----5---3---3---3-3-3---------2-----5---3---3---3-3-3-----A
      E-0-----0-3---3-----------------3-0-----0-3---3-----------------3-E          

      PM________________________________________________________________]
  And Iím not scared of your stolen power / I see right through you any hour
CHORDS: Em     G      C                 Em      G     C
      E-----------------------------------------------------------------E
      B-----------------------------------------------------------------B
      G---------------------5-------5-----------------------5-------5---G
      D-----2-----5---------5-------5-------2-----5---------5-------5---D
      A-----2-----5---3---3---3-3-3---------2-----5---3---3---3-3-3-----A
      E-0-----0-3---3-----------------3-0-----0-3---3-----------------3-E    
                         
        I wonít soothe your pain     I wonít ease your strain
CHORDS: Em                           Em
      E-----------------------------------------------------------------E
      B-----------------------------------------------------------------B
      G-Let-Ring---------------------Let-Ring---------------------------G
      D-2----------------------------2----------------------------------D
      A-2----------------------------2----------------------------------A
      E-0----------------------------0----------------------------------E
      PM________________________________________________________________]
        Youíll be waiting in vain       I Got Nothing For You To Gain 
CHORDS: Em     G      C                 Em      G     C
      E-----------------------------------------------------------------E
      B-----------------------------------------------------------------B
      G---------------------5-------5-----------------------5-------5---G
      D-----2-----5---------5-------5-------2-----5---------5-------5---D
      A-----2-----5---3---3---3-3-3---------2-----5---3---3---3-3-3-----A
      E-0-----0-3---3-----------------3-0-----0-3---3-----------------3-E
      
Here are the lyrics for when you do the whole song:

Iíll seek you out, 
Flay you alive 
One more word and you wonít survive 
And Iím not scared of your stolen power 
I see right through you any hour
 

I wonít soothe your pain 
I wonít ease your strain
You'll Be Waiting in Vain
I Got Nothing For You To Gain 

Iím taking it slow 
Feeding my flame 
Shuffling the cards of your game 
And just in time 
In the right place 
Suddenly I will play my ace 

I wonít soothe your pain 
I wonít ease your strain 
Youíll be waiting in vain 
I got nothing for you to gain 

Eyes on fire 
Your spine is ablaze 
Felling any foe with my gaze 

And just in time 
In the right place 
Steadily emerging with grace 

Felling any foe with my gaze 
Steadily emerging with grace 
Felling any foe with my gaze 
Steadily emerging with grace
Tap to rate this tab
 
# A B C D E F G H I J K L M N O P Q R S T U V W X Y Z