Song name
# A B C D E F G H I J K L M N O P Q R S T U V W X Y Z

Blue Foundation - Eyes On Fire tab

E---------------------------------------------|
B---------------------------------------------|
G---------------------------------------------| (3x)
D---------------------------------------------|
A--------6-------------4--2-----------2-------|
E--6--6--------2--2----------------2-----2----|


                             B
E-------------------------------------|
B-------------------------------------|
G----------------------------4-4-4----|
D----------------------------4-4-4----|
A--------6-------4--2--------2-2-2----|
E--6--6-----2--2----------------------|

Haa haa haa haa

E-------------------------------------|
B-------------------------------------|
G-------------------------------------| (3x)
D-------------------------------------|
A--------6-------4--2-----------2-----|
E--6--6-----2--2-------------2-----2--|

I'll seek you out...
E-------------------------------------|
B-------------------------------------|
G-------------------------------------| (3x)
D-------------------------------------|
A--------6-------4--2-----------2-----|
E--6--6-----2--2-------------2-----2--|
And I'm not scared of your stolen power. I see right through you any hour.

e--------6--4--4--2--2--4--6-----------------------------|
B--4--4-----------------------4----4--4--2--2--7--4--4---|
G--------------------------------------------------------|
D--------------------------------------------------------|
A--------------------------------------------------------|
E--------------------------------------------------------|


I will sooth your vein ..... (1.19)
  D#
E------------|
B------------|
G--8----8----|
D--8----8----|
A--6----6----|
E------------|


You’ll be waiting in vain...

E-------------------------------------|
B-------------------------------------|
G-------------------------------------|
D-------------------------------------|
A--------6-------4--2-----------2-----|
E--6--6-----2--2-------------2-----2--|

                             B
E-------------------------------------|
B-------------------------------------|
G----------------------------4-4-4----|
D----------------------------4-4-4----|
A--------6-------4--2--------2-2-2----|
E--6--6-----2--2----------------------|


I'm taking it slow, feeding my flame. Shuffling the cards of your game.

e-----------6--4--2--4--6---------------------------------|
B--4--4--4-----------------4-------4--4--4--2--2--7--4----|
G---------------------------------------------------------|
D---------------------------------------------------------|
A---------------------------------------------------------|
E---------------------------------------------------------|

And just in time, in the right place, suddenly I will play my ace.

e--------6--4--2--4--6---------------------------------|
B--4--4-----------------4----4--4--4--4--2--2--7--4----|
G------------------------------------------------------|
D------------------------------------------------------|
A------------------------------------------------------|
E------------------------------------------------------|

I won’t soothe your pain ...
      D#         F#            B
E------------------------------------------|
B------------------------------------------|
G--8-8-8-8--11-11-11-11--4-4-4-4-4-4-4-4---| (3x)
D--8-8-8-8--11-11-11-11--4-4-4-4-4-4-4-4---|
A--6-6-6-6--9--9--9--9---2-2-2-2-2-2-2-2---|
E------------------------------------------|

I got nothing for you to gain ...

Eyes on fire, your spine is ablaze. Feeling any foe with my gaze

e-----6--4--4--2--2--4--6--------------------------------------|
B--4-------------------4----4--4--4--4--4--2--2--7--4----------|
G--------------------------------------------------------------|
D--------------------------------------------------------------|
A--------------------------------------------------------------|
E--------------------------------------------------------------|

And just in time, in the right place, steadily emerging from grace.

e--------6--4--2--4--6---------------------------------|
B--4--4-----------------4----4--4--4--4--2--2--7--4----|
G------------------------------------------------------|
D------------------------------------------------------|
A------------------------------------------------------|
E------------------------------------------------------|

 "Solo"
E|-----------------------------------------|
B|-----------------------------------------|
G|--11~--10~\--/8~------/11~--/13~\--/8~---|
D|-----------------------------------------|
A|-----------------------------------------|
E|-----------------------------------------|

E--------------------------------------------------------------|
B--------------------------------------------------------------|
G--------------------------------------------------------------|
D--------------------------------------------------------------|
A--------------------------------------------------------------|
E---11--11--11--11--14--14--14--14--7--7--7--7--7--7--7--7-----|
OR
      D#         F#            B
E--------------------------------------------|
B--------------------------------------------|
G--8-8-8-8--11-11-11-11--4-4-4-4-4-4-4-4-----|
D--8-8-8-8--11-11-11-11--4-4-4-4-4-4-4-4-----|
A--6-6-6-6--9--9--9--9---2-2-2-2-2-2-2-2-----|
E--------------------------------------------|



All other tabs didn't sound so right for me so I just made this instead
Tap to rate this tab
 
# A B C D E F G H I J K L M N O P Q R S T U V W X Y Z