Guitaretab - guitar tabs
Song name
# A B C D E F G H I J K L M N O P Q R S T U V W X Y Z

Blue Man Group - Rock And Go tab

                               ROCK AND GO (Live)
                          As recorded by Blue Man Group
                (From the 2008 Album HOW TO BE A MEGASTAR LIVE!)


  Q=180
 4/4
*After Drums/Bass Intro*
  Gtr I
   H     +Q.    +E    H    +Q.   +E     H     +Q.    +E    W
|-------------------|----------------|-------------------|------|
|-------------------|----------------|-------------------|------|
|-12----(12)---(12)S|=3----(3)---(3)S|=10----(10)---(10)S|=4----|
|-------------------|----------------|-------------------|------|
|-------------------|----------------|-------------------|------|
|-------------------|----------------|-------------------|------|


   E  E  +E   E  Q   E  E    +E   E  Q      Q   Q
|-------------------------|------------------------|
|----12-(12)----12-----12-|-(12)----12b14r=10------|
|-10---------10-----10----|------10------------10--|
|-------------------------|------------------------|
|-------------------------|------------------------|
|-------------------------|------------------------|


   E  E  +E   E  Q   E  E    E  E  E  E  E  E Q
|-------------------------|----------------10-----|
|----12-(12)----12-----12-|----13----14-----------|
|-10---------10-----10----|-10----10----10----x\--|
|-------------------------|-------------------x\--|
|-------------------------|-----------------------|
|-------------------------|-----------------------|


  Q  E Q  Q  E   Q  E Q  Q  E   Q  E Q  Q  E   Q  E Q  Q  E
|--------------|--------------|--------------|--------------|
|--------------|--------------|--------------|--------------|
|--------------|--------------|--------------|--------------|
|-3--5-5--5----|-3--5-5--5----|-3--5-5--5----|-3--5-5--5----|
|-3--5-5--5----|-3--5-5--5----|-3--5-5--5----|-3--5-5--5----|
|-1--3-3--3----|-1--3-3--3----|-1--3-3--3----|-1--3-3--3----|


  PM------------------------------|
  E E E E E E E E   E E E E E E E E
|-----------------|-----------------|
|-----------------|-----------------|
|-----------------|-----------------|
|-----------------|-----------------|
|---------1-1-1-1-|-----------------|
|-3-3-3-3---------|-3-3-3-3-1-1-1-1-|
 Gonna rock, and then we'll go

  e e Q  e e Q    e e Q  e e Q
|---------------|---------------|
|---------------|---------------|
|---------------|---------------|
|-5-5-5--8-8-8--|-5-5-5--3-3-3--|
|-5-5-5--8-8-8--|-5-5-5--3-3-3--|
|-3-3-3--6-6-6--|-3-3-3--1-1-1--|
 Gonna rock, gonna rocka and go

  PM------------------------------|
  E E E E E E E E   E E E E E E E E
|-----------------|-----------------|
|-----------------|-----------------|
|-----------------|-----------------|
|-----------------|-----------------|
|---------1-1-1-1-|-----------------|
|-3-3-3-3---------|-3-3-3-3-1-1-1-1-|
 We brought the music, we brought the show

  e e Q  e e Q    e e Q  e e Q
|---------------|---------------|
|---------------|---------------|
|---------------|---------------|
|-5-5-5--8-8-8--|-5-5-5--3-3-3--|
|-5-5-5--8-8-8--|-5-5-5--3-3-3--|
|-3-3-3--6-6-6--|-3-3-3--1-1-1--|
 Gonna rock, gonna rock and go

  PM------------------------------|
  E E E E E E E E   E E E E E E E E
|-----------------|-----------------|
|-----------------|-----------------|
|-----------------|-----------------|
|-----------------|-----------------|
|---------1-1-1-1-|-----------------|
|-3-3-3-3---------|-3-3-3-3-1-1-1-1-|
 We came to kick it, that's all we know

  e e Q  e e Q    e e Q  e e Q
|---------------|---------------|
|---------------|---------------|
|---------------|---------------|
|-5-5-5--8-8-8--|-5-5-5--3-3-3--|
|-5-5-5--8-8-8--|-5-5-5--3-3-3--|
|-3-3-3--6-6-6--|-3-3-3--1-1-1--|
We're gonna wind it up real tight and then we'll let it go

  Q  E Q  Q  E   Q  E Q  Q  E
|--------------|--------------|
|--------------|--------------|
|--------------|--------------|
|-3--5-5--5----|-3--5-5--5----|
|-3--5-5--5----|-3--5-5--5----|
|-1--3-3--3----|-1--3-3--3----|


  W          W
|----------|-------|
|----------|-------|
|-5--------|-3-----|
|-5--------|-3-----|
|-3--------|-1-----|
|----------|-------|
 Let's get it goin' get some motion get it movin' fast

  Q  E Q  Q  E   Q  E Q  Q  E
|--------------|--------------|
|--------------|--------------|
|-3--5-5--5----|-3--5-5--5----|
|-3--5-5--5----|-3--5-5--5----|
|-1--3-3--3----|-1--3-3--3----|
|--------------|--------------|


  W          W
|----------|-------|
|----------|-------|
|-5--------|-3-----|
|-5--------|-3-----|
|-3--------|-1-----|
|----------|-------|
 Just give it everything you got, don't try to make it last

  Q  E Q  Q  E   Q  E Q  Q  E
|--------------|--------------|
|--------------|--------------|
|--------------|--------------|
|-3--5-5--5----|-3--5-5--5----|
|-3--5-5--5----|-3--5-5--5----|
|-1--3-3--3----|-1--3-3--3----|


  W          W
|----------|-------|
|----------|-------|
|-5--------|-3-----|
|-5--------|-3-----|
|-3--------|-1-----|
|----------|-------|
 'Cuz we all came here to do this

  Q  E Q  Q  E   Q  E Q  Q  E
|--------------|--------------|
|--------------|--------------|
|--------------|--------------|
|-3--5-5--5----|-3--5-5--5----|
|-3--5-5--5----|-3--5-5--5----|
|-1--3-3--3----|-1--3-3--3----|


  W          W
|----------|-------|
|----------|-------|
|-5--------|-3-----|
|-5--------|-3-----|
|-3--------|-1-----|
|----------|-------|
 And we all know exactly what to do

  Q  E Q  Q  E   Q  E Q  Q  E
|--------------|--------------|
|--------------|--------------|
|--------------|--------------|
|-3--5-5--5----|-3--5-5--5----|
|-3--5-5--5----|-3--5-5--5----|
|-1--3-3--3----|-1--3-3--3----|


  W          W          W          W
|----------|----------|----------|------|
|----------|----------|----------|------|
|-8--------|-3--------|----------|-5----|
|-8--------|-3--------|-3--------|-5----|
|-6--------|-1--------|-3--------|-3----|
|----------|----------|-1--------|------|
 Just give us a sign that you're ready to believe

  PM------------------------------|      PM--------|
  E E E E E E E E   E E E E E E E E   Q  E E E E E E   Q  Q  H
|-----------------|-----------------|----------------|------------|
|-----------------|-----------------|----------------|------------|
|-----------------|-----------------|-5--5-5-5-5-5-5-|-5----------|
|-----------------|-----------------|-5--5-5-5-5-5-5-|-5----------|
|-----------------|-----------------|-3--3-3-3-3-3-3-|-3----------|
|-3-3-3-3-3-3-3-3-|-6-6-6-6-6-6-6-6-|----------------|------------|
 And we'll come through for you                           (but then we'll leave)

  PM------------------------------|
  E E E E E E E E   E E E E E E E E
|-----------------|-----------------|
|-----------------|-----------------|
|-----------------|-----------------|
|-----------------|-----------------|
|---------1-1-1-1-|-----------------|
|-3-3-3-3---------|-3-3-3-3-1-1-1-1-|
 Gonna rock, and then we'll go

  e e Q  e e Q    e e Q  e e Q
|---------------|---------------|
|---------------|---------------|
|---------------|---------------|
|-5-5-5--8-8-8--|-5-5-5--3-3-3--|
|-5-5-5--8-8-8--|-5-5-5--3-3-3--|
|-3-3-3--6-6-6--|-3-3-3--1-1-1--|
 Gonna rock, gonna rock, don't wanna take it slow

  PM------------------------------|
  E E E E E E E E   E E E E E E E E
|-----------------|-----------------|
|-----------------|-----------------|
|-----------------|-----------------|
|-----------------|-----------------|
|---------1-1-1-1-|-----------------|
|-3-3-3-3---------|-3-3-3-3-1-1-1-1-|
 It's time to party, we'll have some fun

  e e Q  e e Q    e e Q  e e Q
|---------------|---------------|
|---------------|---------------|
|---------------|---------------|
|-5-5-5--8-8-8--|-5-5-5--3-3-3--|
|-5-5-5--8-8-8--|-5-5-5--3-3-3--|
|-3-3-3--6-6-6--|-3-3-3--1-1-1--|
 Gonna rock, gonna rock, gonna rock and run

  PM------------------------------|
  E E E E E E E E   E E E E E E E E
|-----------------|-----------------|
|-----------------|-----------------|
|-----------------|-----------------|
|-----------------|-----------------|
|---------1-1-1-1-|-----------------|
|-3-3-3-3---------|-3-3-3-3-1-1-1-1-|
 We kick completely when we jam

  e e Q  e e Q    e e Q  e e Q
|---------------|---------------|
|---------------|---------------|
|---------------|---------------|
|-5-5-5--8-8-8--|-5-5-5--3-3-3--|
|-5-5-5--8-8-8--|-5-5-5--3-3-3--|
|-3-3-3--6-6-6--|-3-3-3--1-1-1--|
 First we wham and then we bam no time for 'thank you ma'am'

  Q  E Q  Q  E   Q  E Q  Q  E
|--------------|--------------|
|--------------|--------------|
|--------------|--------------|
|-3--5-5--5----|-3--5-5--5----|
|-3--5-5--5----|-3--5-5--5----|
|-1--3-3--3----|-1--3-3--3----|


  W          W
|----------|-------|
|----------|-------|
|-5--------|-3-----|
|-5--------|-3-----|
|-3--------|-1-----|
|----------|-------|
 Let's get it goin' get some motion get it movin' fast
[ Tab from: http://www.guitaretab.com/b/blue-man-group/113018.html ]
  Q  E Q  Q  E   Q  E Q  Q  E
|--------------|--------------|
|--------------|--------------|
|-3--5-5--5----|-3--5-5--5----|
|-3--5-5--5----|-3--5-5--5----|
|-1--3-3--3----|-1--3-3--3----|
|--------------|--------------|


  W          W
|----------|------|
|----------|------|
|-5--------|-3----|
|-5--------|-3----|
|-3--------|-1----|
|----------|------|
 Just give it everything you got, don't try to make it last

  Q  E Q  Q  E   Q  E Q  Q  E
|--------------|--------------|
|--------------|--------------|
|--------------|--------------|
|-3--5-5--5----|-3--5-5--5----|
|-3--5-5--5----|-3--5-5--5----|
|-1--3-3--3----|-1--3-3--3----|


  W          W
|----------|------|
|----------|------|
|-5--------|-3----|
|-5--------|-3----|
|-3--------|-1----|
|----------|------|
 'Cuz we all came here to do this

  Q  E Q  Q  E   Q  E Q  Q  E
|--------------|--------------|
|--------------|--------------|
|--------------|--------------|
|-3--5-5--5----|-3--5-5--5----|
|-3--5-5--5----|-3--5-5--5----|
|-1--3-3--3----|-1--3-3--3----|


  W          W
|----------|------|
|----------|------|
|-5--------|-3----|
|-5--------|-3----|
|-3--------|-1----|
|----------|------|
 And we all know exactly what to do

  Q  E Q  Q  E   Q  E Q  Q  E
|--------------|--------------|
|--------------|--------------|
|--------------|--------------|
|-3--5-5--5----|-3--5-5--5----|
|-3--5-5--5----|-3--5-5--5----|
|-1--3-3--3----|-1--3-3--3----|


  W          W          W          W
|----------|----------|----------|------|
|----------|----------|----------|------|
|-8--------|-3--------|----------|-5----|
|-8--------|-3--------|-3--------|-5----|
|-6--------|-1--------|-3--------|-3----|
|----------|----------|-1--------|------|
 Just give us a sign that you're ready to believe

  PM------------------------------|      PM--------|
  E E E E E E E E   E E E E E E E E   Q  E E E E E E   Q  Q  H
|-----------------|-----------------|----------------|------------|
|-----------------|-----------------|----------------|------------|
|-----------------|-----------------|-5--5-5-5-5-5-5-|-5----------|
|-----------------|-----------------|-5--5-5-5-5-5-5-|-5----------|
|-----------------|-----------------|-3--3-3-3-3-3-3-|-3----------|
|-3-3-3-3-3-3-3-3-|-6-6-6-6-6-6-6-6-|----------------|------------|
 And we'll come through for you                           (but then we'll leave)

  Q  E Q  Q  E   Q  E Q  Q  E   Q  E Q  Q  E   Q  E Q  Q  E
|--------------|--------------|--------------|--------------|
|--------------|--------------|--------------|--------------|
|--------------|--------------|--------------|--------------|
|-3--5-5--5----|-3--5-5--5----|-3--5-5--5----|-3--5-5--5----|
|-3--5-5--5----|-3--5-5--5----|-3--5-5--5----|-3--5-5--5----|
|-1--3-3--3----|-1--3-3--3----|-1--3-3--3----|-1--3-3--3----|


  Q.   Q.   Q    +E   Q.    Q  Q    W          W
|--------------|------------------|----------|------|
|--------------|------------------|----------|------|
|------8----5--|-(5)-10----10-----|----------|------|
|-8----8----5--|-(5)-10----10--8--|----------|------|
|-8----6----3--|-(3)--8-----8--8--|----------|------|
|-6------------|---------------6--|----------|------|
 (It is now time to show off your 
Megastar talent)

  Q.   Q.   Q    +E   Q.    Q  Q    W          W
|--------------|------------------|----------|------|
|--------------|------------------|----------|------|
|------8----5--|-(5)-10----10-----|----------|------|
|-8----8----5--|-(5)-10----10--8--|----------|------|
|-8----6----3--|-(3)--8-----8--8--|----------|------|
|-6------------|---------------6--|----------|------|


  Q.   Q.   Q    +E   Q.    Q  Q    W          W
|--------------|------------------|----------|------|
|--------------|------------------|----------|------|
|------8----5--|-(5)-10----10-----|----------|------|
|-8----8----5--|-(5)-10----10--8--|----------|------|
|-8----6----3--|-(3)--8-----8--8--|----------|------|
|-6------------|---------------6--|----------|------|


  Q.   Q.   Q    W          Q.   Q.   Q    W
|--------------|----------|--------------|------|
|--------------|----------|--------------|------|
|------8----5--|----------|------8----5--|------|
|-8----8----5--|----------|-8----8----5--|------|
|-8----6----3--|----------|-8----6----3--|------|
|-6------------|----------|-6------------|------|


  Q.   Q.   Q    W           Q.   E H      W
|--------------|----------|--------------|------|
|--------------|----------|--------------|------|
|------8----5--|----------|-10-----------|------|
|-8----8----5--|----------|-10-----------|------|
|-8----6----3--|----------|--8-----------|------|
|-6------------|----------|--------------|------|


  W          W          W          W          W          W
|----------|----------|----------|----------|----------|------|
|----------|----------|----------|----------|----------|------|
|----------|----------|----------|----------|----------|------|
|----------|----------|----------|----------|----------|------|
|----------|----------|----------|----------|----------|------|
|----------|----------|----------|----------|----------|------|


  E E E E E E E E   E E Q  H      W        
|-----------------|-------------|----------|
|-----------------|-------------|----------|
|-8-8-8-8-5-5-5-5-|-8-----------|----------|
|-8-8-8-8-5-5-5-5-|-8-----------|----------|
|-6-6-6-6-3-3-3-3-|-6-----------|----------|
|-----------------|-------------|----------|


  Q  E Q  Q  E   Q  E Q  Q  E   Q  E Q  Q  E   Q  E Q  Q  E
|--------------|--------------|--------------|--------------|
|--------------|--------------|--------------|--------------|
|--------------|--------------|--------------|--------------|
|-3--5-5--5----|-3--5-5--5----|-3--5-5--5----|-3--5-5--5----|
|-3--5-5--5----|-3--5-5--5----|-3--5-5--5----|-3--5-5--5----|
|-1--3-3--3----|-1--3-3--3----|-1--3-3--3----|-1--3-3--3----|


  PM------------------------------|
  E E E E E E E E   E E E E E E E E
|-----------------|-----------------|
|-----------------|-----------------|
|-----------------|-----------------|
|-----------------|-----------------|
|---------1-1-1-1-|-----------------|
|-3-3-3-3---------|-3-3-3-3-1-1-1-1-|
 Gonna rock, and then we'll go

  e e Q  e e Q    e e Q  e e Q
|---------------|---------------|
|---------------|---------------|
|---------------|---------------|
|-5-5-5--8-8-8--|-5-5-5--3-3-3--|
|-5-5-5--8-8-8--|-5-5-5--3-3-3--|
|-3-3-3--6-6-6--|-3-3-3--1-1-1--|
 Gonna rock, gonna rock and go

  PM------------------------------|
  E E E E E E E E   E E E E E E E E
|-----------------|-----------------|
|-----------------|-----------------|
|-----------------|-----------------|
|-----------------|-----------------|
|---------1-1-1-1-|-----------------|
|-3-3-3-3---------|-3-3-3-3-1-1-1-1-|
 We hate to leave you, but rocking takes it's toll

  e e Q  e e Q    e e Q  e e Q
|---------------|---------------|
|---------------|---------------|
|---------------|---------------|
|-5-5-5--8-8-8--|-5-5-5--3-3-3--|
|-5-5-5--8-8-8--|-5-5-5--3-3-3--|
|-3-3-3--6-6-6--|-3-3-3--1-1-1--|
 Gonna rock, gonna rock, but once we rock we roll

*After that, about a minuet of noise, then the final chord*

  W          H    H
|----------|-----------*|
|----------|-----------*|
|----------|-----------*|
|----------|-3---------*|
|----------|-3---------*|
|----------|-1---------*|


Duration Legend
---------------
W - whole; H - half; Q - quarter; E - 8th; S - 16th; T - 32nd; X - 64th; a - acciaccatura
+ - note tied to previous; . - note dotted; .. - note double dotted
Uncapitalized letters represent notes that are staccato (1/2 duration)
Irregular groupings are notated above the duration line
Duration letters will always appear directly above the note/fret number it represents the
duration for.  Duration letters with no fret number below them represent rests.  Multi-
bar rests are notated in the form Wxn, where n is the number of bars to rest for.  Low
melody durations appear below the staff

Tablature Legend
----------------
 h   - hammer-on
 p   - pull-off
 b   - bend
 pb  - pre-bend
 r   - bend release (if no number after the r, then release immediately)
 /\  - slide into or out of (from/to "nowhere")
 s   - legato slide
 S   - shift slide
  - natural harmonic
[n]  - artificial harmonic
n(n) - tapped harmonic
 ~   - vibrato
 tr  - trill
 T   - tap
 TP  - trem. picking
 PM  - palm muting
\n/  - tremolo bar dip; n = amount to dip
 \n  - tremolo bar down
 n/  - tremolo bar up
/n\  - tremolo bar inverted dip
 =   - hold bend; also acts as connecting device for hammers/pulls
 <>  - volume swell (louder/softer)
 x   - on rhythm slash represents muted slash
 o   - on rhythm slash represents single note slash

Misc Legend
-----------
 |  - bar
||  - double bar
||o - repeat start
o|| - repeat end
*|  - double bar (ending)
 :  - bar (freetime)
 $  - Segno
 &  - Coda
Tempo markers -  = BPM(8/16=s8/s16), where s8 = swing 8ths, s16 = swing 16ths


***************************************************************************************
* Generated using Power Tab Editor by Brad Larsen - http://powertab.guitarnetwork.org *
***************************************************************************************
Related for Rock And Go tab