Song name
# A B C D E F G H I J K L M N O P Q R S T U V W X Y Z

Blue Man Group - Time To Start tab

   Time to Start - Blue Man Group
-------------------------------------------------------------------------------
Tabbed by:Matt
Email:mattjnorman8@yahoo.com

Tuning:standard
lead line during the rock movements
e|------------------------------------------------------12-------------------|
B|---------------14-----------------12--------------------------------14-----|
G|---------------------------------------------------------------------------|
D|----11--11-----------11--11----------------11--11--------11--11------------|
A|---------------------------------------------------------------------------|
E|---------------------------------------------------------------------------|

e|-----------------------------------------------------------------------14--|
B|-------------12h14-----------------14-----------------12-------------------|
G|---------------------------------------------------------------------------|
D|---11--11---------------11--11------------11--11------------11--11---------|
A|---------------------------------------------------------------------------|
E|---------------------------------------------------------------------------|

e|-----------------------------12h14-----------------------------------------|
B|--------------14-----------------------------------------------------------|
G|---------------------------------------------------------------------------|
D|---11--11----------11--11--------------------------------------------------|
A|---------------------------------------------------------------------------|
E|---------------------------------------------------------------------------|
that's it. Just keep repeating the pattern through the rock movement section. Listen to 
recording for the amount of times it repeats.
If anyone knows the actual chord progression, let me know.

| /  slide up
| \  slide down
| h  hammer-on
| p  pull-off
| ~  vibrato
| +  harmonic
| x  Mute note
===============================================================================
Tap to rate this tab
 
# A B C D E F G H I J K L M N O P Q R S T U V W X Y Z