Song name
# A B C D E F G H I J K L M N O P Q R S T U V W X Y Z

Blue October - My Never tab

I could only figure out the verses, so here it is...I'm absolutely positive that this is 
correct.

|---------------------------|
|---------------------------|
|---------------------8-----|  2x
|-----9-----9-----9-----9---|
|-7-7---7-7---7-7---7-------|
|---------------------------|

|---------------------------------------------------|
|---------------------------------------------------|
|---------------------------------------------------|  2x
|-----9--(4x)-----9--(4x)-----7--(4x)-----6---------|(4x)
|-7-7---------6-6---------5-5---------4-4-----------|
|---------------------------------------------------|

Justin does some transitions here and there, but I can't see them clearly enough in the
 It sounds fine if you just do the basic riff.  If anyone has a problem with this or
out the chorus, email me at pickelz01@comcast.net.  Hope you like it ;D
Tap to rate this tab
# A B C D E F G H I J K L M N O P Q R S T U V W X Y Z