Song name
# A B C D E F G H I J K L M N O P Q R S T U V W X Y Z

Blue October - Holler tab

after i seen there was only a couple tabs for this song i decided to make
one myself, this one is a little harder but it sounds good

standard (E,A,D,G,B,e)


intro

e|---------------------------------------------------------|
B|---------------------------------------------------------|
G|---------------------------------------------------------|
D|---------------------------------------------------------|
A|------2--2--5--2--5--2--5--2--X---2--5--2--5--2--7-------|
E|------0--0--3--0--3--0--3--0--X---0--3--0--3--0--5-------|  X4



verse

e|-----------------------------------------------------------|
B|-----------------------------------------------------------|
G|-----------------------------------------------------------|
D|-----------------------------------------------------------|
A|-----6/3------------6/3-------------6/3-----------6/3------|
E|-----4/1------------4/1-------------4/1-----------4/1------|




chorus

e|------------------------------------------------------------------|
B|------------------------------------------------------------------|
G|-------------------7--7--7--7-7---5--5--5--5-5---5--5--5--5-5-----|
D|----5--5--5--5-5---7--7--7--7-7---5--5--5--5-5---5--5--5--5-5-----|
A|----5--5--5--5-5---5--5--5--5-5---3--3--3--3-3---3--3--3--3-3-----|
E|----3--3--3--3-3--------------------------------------------------|  X4




bridge

e|------------------------|
B|------------------------|
G|------------------------|
D|------------------------|
A|-----2225--2222227------|
E|-----0003--0000005------|  X11




outro

e|------------------------------------|
B|------------------------------------|
G|------------------------------------|
D|------------------------------------|
A|------2--2--5--2--5--2--5--2--------|
E|------0--0--3--0--3--0--3--0--------|  X2


good song, enjoy
Tap to rate this tab
# A B C D E F G H I J K L M N O P Q R S T U V W X Y Z