Song name
# A B C D E F G H I J K L M N O P Q R S T U V W X Y Z

Blue October - Everlasting Friend tab

Blue October
Everlasting Friend
Foiled

Standard Tuning

Verse:
E-----------|
B----3-1-0~-|
G---2-------|
D--2--------|
A-0---------|
E-----------|

Chorus:
E-----------------------|
B-----------------------|
G-19-17-16--------------|
D----------16-17-19-17~-|
A-----------------------|
E-----------------------|

Break:
E-0~~~~~---0~~~~~-|
B--1~~~~----1~~~~-|
G---0~~~-----2~~~-|
D----2~~------2~~-|
A-----3~-------0~-|
E-----------------|

Questions?
Email at Coldfry1@aol.com
Tap to rate this tab
 
# A B C D E F G H I J K L M N O P Q R S T U V W X Y Z