Song name
# A B C D E F G H I J K L M N O P Q R S T U V W X Y Z

Blue October - Drilled A Wire Through My Cheek tab

Blue October
Drilled A Wire Through My Cheek
Foiled

Standard Tuning

Verse 1: bass with a little guitar part
E----------|
B-----4-2~-|
G----5-----|
D-3h5------|
A----------|
E----------|

Chorus:
E----------------------------|
B----------------------------|
G----------------------18-17-|
D-8~-x-xx8~-x-xx8~-x-xx-x--x-|
A-8~-x-xx8~-x-xx8~-x-xx16-15-|
E-6~-x-xx6~-x-xx6~-x-xx------|

E----------------------------|
B----------------------------|
G----------------------18-20-|
D-8~-x-xx8~-x-xx8~-x-xx-x--x-|
A-8~-x-xx8~-x-xx8~-x-xx16-18-|
E-6~-x-xx6~-x-xx6~-x-xx------|

Verse 2: listen when to play
E------------------------------|
B-14-13-11~-----4-2~-14-13-11~-|
G--------------5---------------|
D-----------3h5----------------|
A------------------------------|
E------------------------------|

E--------------------|
B-14-13-11~-----4-2~-|
G--------------5-----|
D-----------3h5------|
A--------------------|
E--------------------|

Verse 3: listen when to play
E-----------------------------|
B-----4-2~-----4-2~-14-13-11~-|
G----5--------5---------------|
D-3h5------3h5----------------|
A-----------------------------|
E-----------------------------|

Order:
Verse 1--1x
Chorus---2x
Verse 2--1x
Chorus---2x
Verse 3--1x
Chorus---6x
Tap to rate this tab
 
# A B C D E F G H I J K L M N O P Q R S T U V W X Y Z