Song name
# A B C D E F G H I J K L M N O P Q R S T U V W X Y Z

Blue October - Blue Does tab

Blue October
Blue Does
Approaching Normal

Standard Tuning

Intro: twice
E-------------------------|
B-----1------1-------1----|
G----0-0-------0----0-0---|
D---2------2-------2------|
A-3------3-------3------3-|
E-------------------------|

Verse:
E-----------------------------------------------|
B-----1------1-------1------1--------1------1---|
G----0-0-------0----0-0----0-0-0----0-0-------0-|
D---2------2-------2------2---2----2------2-----|
A-3------3-------3------3--------0------0-------|
E-----------------------------------------------|

Pre-Chorus:
E-------------------------------|
B-----1------1-------1------1---|
G----0-0----0-0-----0-0-------0-|
D---3------3-------2------2-----|
A----------------3------3-------|
E-1------1----------------------|

E------------------------|
B-----1------1------1----|
G----0-0----0-0----0-0---|
D---3------3------2------|
A---------------3------3-|
E-1------1---------------|

Chorus:
E-----------------|
B-----3-------1---|
G----0-0-----0-0--|
D---0---0---3---3-|
A-----------------|
E-3-------1-------|

Intro

Verse

Chorus: 5 is a harmonic
E-----------------|
B-----3-------1---|
G----0-0-----0-0--|
D---0---5---3---3-|
A-----------------|
E-3-------1-------|

E--------|
B-----1--|
G----0-0-|
D---2----|
A-3------|
E--------|

E---------------|
B-----3-------1-|
G----0-0-----0--|
D---0---0---3---|
A---------------|
E-3-------1-----|

Intro

Solo: verse twice, pre-chorus once
guitar 2:
E-----------------------|
B-----------------------|
G-5-7-9-9/12--5-7-7/9-5-|
D-----------------------|
A-----------------------|
E-----------------------|
3x

E---------------------|
B---------------------|
G-5-7-9-9/12-10---9-5-|
D---------------------|
A---------------------|
E---------------------|
2x

Chorus:
E-----------------|
B-----3-------1---|
G----0-0-----0----|
D---0---0---3-----|
A---------------3-|
E-3-------1-------|

guitar 2:
E-------1-0-|
B-3--1------|
G-----------|
D-----------|
A-----------|
E-----------|

Questions?
Email at Coldfry1@aol.com
Tap to rate this tab
# A B C D E F G H I J K L M N O P Q R S T U V W X Y Z