Guitaretab - guitar tabs
Song name
# A B C D E F G H I J K L M N O P Q R S T U V W X Y Z

Blue October - Say It tab

Blue October
Say It
Approaching Normal

Intro: guitar 1
E--------------------------------|
B--------------------------------|
G--------------------------------|
D-3333333322222222777777777777777|
A-3333333322222222777777777777777|
E-1111111100000000555555555555555|

guitar 2
E----------------------------------------------|
B----------------------------------------------|
G-------9-9------------------------------------|
D-10-10-----9-9-10-10-10-10-10-10-10-10h12-9-9-|
A----------------------------------------------|
E----------------------------------------------|

E-----------------------------------------------|
B-----------------------------------------------|
G-----9-9-------------------------------------9-|
D-9-9-----9-9-10-10-10-10-10-10h12~-10~-10-10---|
A-----------------------------------------------|
E-----------------------------------------------|

E---------------------------------------------------------|
B---------------------------------------------------------|
G-9-------------------------------------------9-9-----7b~-|
D---9-9-10-10-10-10-10-10-10-10-10h12-9-9-9-9-----9-9-----|
A---------------------------------------------------------|
E---------------------------------------------------------|


Verse 1: bass


Chorus: guitar 1
E--------------------------------|
B--------------------------------|
G--------------------------------|
D-3333333322222222777777777777777|
A-3333333322222222777777777777777|
E-1111111100000000555555555555555|

guitar 2
E------------|
B------------|
G-5-7-9-12-9-|
D-x-x-x--x-x-|
A-3-5-7-10-7-|
E------------|
3x then

E-----------|
B-----------|
G-5-4-5-4-2-|
D-x-x-x-x-x-|
A-3-2-3-2-0-|
E-----------|

[ Tab from: http://www.guitaretab.com/b/blue-october/181876.html ]
Post-Chorus:
E---------------------------------------------------------------|
B---------------------------------------------------------------|
G------9-9------------------------------------------9-9-----7b~-|
D-10-10----9-9-10-10-10-10-10-10-10-10-10h12-9-9-9-9----9-9-----|
A---------------------------------------------------------------|
E---------------------------------------------------------------|


Verse 2:
E------3-0------0---|
B-1p0h1----1p0h1--0-|
G-------------------|
D-------------------|
A-------------------|
E-------------------|


Chorus


Post-Chorus


Break: guitar 1
E-------------------------|
B-------------------------|
G-------------------------|
D-333333335555555577777777|
A-333333335555555577777777|
E-111111113333333355555555|

guitar 2
E--------------------|
B--------------------|
G-121212-10-10-9-7-9-|
D--------------------|
A--------------------|
E--------------------|

E------------|
B------------|
G-5-7-9-10-9-|
D-x-x-x--x-x-|
A-3-5-7--8-7-|
E------------|


Chorus


Outro: guitar 1
E--------------------------------|
B--------------------------------|
G--------------------------------|
D-3333333322222222777777777777777|
A-3333333322222222777777777777777|
E-1111111100000000555555555555555|

guitar 2
E---------------------------------|
B---------------------------------|
G-5-7-9-12-9~-5-4-5-4-2~-2~-4~-2~-|
D-x-x-x--x-x~-x-x-x-x-x--x--x--x--|
A-3-5-7-10-7~-3-2-3-2-0~-0~-2~-0~-|
E---------------------------------|

E---------------------------------------|
B---------------------------------------|
G-557799101210910121099-7799779977997799|
D-xxxxxx-x-x-xx-x-x-xxx-xxxxxxxxxxxxxxxx-|
A-335577-810-87-810-877-5577557755775577-|
E----------------------------------------|

E----------------------------|
B----------------------------|
G-55994455555555/4444499447b~|
D-xxxxxxxxxxxxxx/xxxxxxxxxx--|
A-33772233333333/5222277225b~|
E----------------------------|

Questions?
Email at Coldfry1@aol.com
Related for Say It tab
Say It chords by Blue October