Song name
# A B C D E F G H I J K L M N O P Q R S T U V W X Y Z

Blue October - Weight Of The World tab

Blue October
Weight Of The World
Approaching Normal

Standard Tuning

Verse 1: bass only

Chorus: guitar 1
E----------|
B----------|
G----------|
D-7~-2~-9~-|
A-7~-2~-9~-|
E-5~-0~-7~-|

guitar 2
E-------------------------------------------|
B-------------------------------------------|
G-14-14-14-14-13-13-13-13-11111111-9/111111-|
D--x--x--x--x--x--x--x--x--x-x-x-x-x/-x-x-x-|
A-12-12-12-12-11-11-11-11--9-9-9-9-7/-9-9-9-|
E-------------------------------------------|

Verse 2: guitar 1
E--------------------------|
B--2-3~--2-3~---2-2~--2-2~-|
G-2-2---2-2----2-2---2-2---|
D--------------------------|
A--------------------------|
E--------------------------|

guitar 2
E------------------------|
B------------------------|
G-9---999--999--9997-6-4-|
D-x---xxx--xxx--xxxx-x-x-|
A-7---777--777--7775-4-2-|
E------------------------|

Chorus

Break: 2nd time leave off last 7 & 9
E---------------------|
B---------------------|
G---------------------|
D---------------------|
A------7~~-7-------9~-|
E-5~~-------7~~--7----|

Outro: guitar 1
E----------|
B----------|
G----9~----|
D-7~-9~-9~-|
A-7~-7~-9~-|
E-5~-0~-7~-|

guitar 2
E-------------------------------------------|
B-------------------------------------------|
G-14-14-14-14-13-13-13-13-11111111-9/111111-|
D--x--x--x--x--x--x--x--x--x-x-x-x-x/-x-x-x-|
A-12-12-12-12-11-11-11-11--9-9-9-9-7/-9-9-9-|
E-------------------------------------------|

E----------------------------------|
B----------------------------------|
G-14-14-14-14-13-13-13-13-11111111-|
D--x--x--x--x--x--x--x--x--x-x-x-x-|
A-12-12-12-12-11-11-11-11--9-9-9-9-|
E----------------------------------|

E----------------------------|
B----------------------------|
G-999111111131313141414161616|
D-xxxxxxxxxxxxxxxxxxxxxxxxxxx|
A-777-9-9-9111111121212141414-|
E-----------------------------|

E------------------------|
B------------------------|
G-9--999--999--999-7-6-4-|
D-x--xxx--xxx--xxx-x-x-x-|
A-7--777--777--777-5-4-2-|
E------------------------|
this riff to the end

Questions?
Email at Coldfry1@aol.com
Tap to rate this tab
# A B C D E F G H I J K L M N O P Q R S T U V W X Y Z