Song name
# A B C D E F G H I J K L M N O P Q R S T U V W X Y Z

Blue October - Blue Skies tab

Blue October
Blue Skies
Approaching Normal

Standard Tuning

Intro:
E-3-3-333-3-3-333-3-3-333-3-3-333-|
B-3-3-333-3-3-333-3-3-333-3-3-333-|
G-0-0-000-0-0-000-0-0-000-0-0-000-|
D-0-0-000-0-0-000-0-0-000-0-0-000-|
A-2-2-222-2-2-222-2-2-222-2-2-222-|
E-3-3-333-3-3-333-3-3-333-3-3-333-|

E-2-2-222-2-2-222-2-2-222-2-2-222-|
B-3-3-333-3-3-333-3-3-333-3-3-333-|
G-4-4-444-4-4-444-4-4-444-4-4-444-|
D-4-4-444-4-4-444-4-4-444-4-4-444-|
A-2-2-222-2-2-222-2-2-222-2-2-222-|
E---------------------------------|

E-0-0-000-0-0-000-0-0-000-0-0-000-|
B-1-1-111-1-1-111-1-1-111-1-1-111-|
G-2-2-222-2-2-222-2-2-222-2-2-222-|
D-2-2-222-2-2-222-2-2-222-2-2-222-|
A-0-0-000-0-0-000-0-0-000-0-0-000-|
E---------------------------------|

E-2-2-222-2-2-222-2-2-222-2-2-|
B-3-3-333-3-3-333-3-3-333-3-3-|
G-2-2-222-2-2-222-2-2-222-2-2-|
D-0-0-000-0-0-000-0-0-000-0-0-|
A-----------------------------|
E-----------------------------|

Verse 1: bass first half then
E-----------------------------------------------|
B-----------------------------------------------|
G-------------4-4---4-4---2-2---2-2---7-7---7-7-|
D-5-5---5-5---4-4---4-4---2-2---2-2---7-7---7-7-|
A-5-5---5-5---2-2---2-2---0-0---0-0---5-5---5-5-|
E-3-3---3-3-------------------------------------|

Chorus: guitar 1 - each section twice
E-|------------------|------------------|
B-|------------------|------------------|
G-|------------------|-4-4-4444-44-4444-|
D-|-5-5-5555-55-5555-|-4-4-4444-44-4444-|
A-|-5-5-5555-55-5555-|-2-2-2222-22-2222-|
E-|-3-3-3333-33-3333-|------------------|

E-|------------------|------------------|
B-|------------------|------------------|
G-|-2-2-2222-22-2222-|-7-7-7777-77-7777-|
D-|-2-2-2222-22-2222-|-7-7-7777-77-7777-|
A-|-0-0-0000-00-0000-|-5-5-5555-55-5555-|
E-|------------------|------------------|

guitar 2 - each section twice
E-|------------------------------|------------------------------|
B-|------------------------------|------------------------------|
G-|-12-12-12121212-1212-12121212-|-11-11-11111111-1111-11111111-|
D-|--x--x--x-x-x-x--x-x--x-x-x-x-|--x--x--x-x-x-x--x-x--x-x-x-x-|
A-|-10-10-10101010-1010-10101010-|--9--9--9-9-9-9--9-9--9-9-9-9-|
E-|------------------------------|------------------------------|

E-|------------------|------------------------------|
B-|------------------|------------------------------|
G-|-9-9-9999-99-9999-|-11-11-11111111-1111-11111111-|
D-|-x-x-xxxx-xx-xxxx-|--x--x--x-x-x-x--x-x--x-x-x-x-|
A-|-7-7-7777-77-7777-|--9--9--9-9-9-9--9-9--9-9-9-9-|
E-|-------------------------------------------------|

Verse 2: each section twice
E-----------------------------------------------|
B-----------------------------------------------|
G-------------4-4---4-4---2-2---2-2---7-7---7-7-|
D-5-5---5-5---4-4---4-4---2-2---2-2---7-7---7-7-|
A-5-5---5-5---2-2---2-2---0-0---0-0---5-5---5-5-|
E-3-3---3-3-------------------------------------|

E-|---------------|---------------|
B-|---------------|---------------|
G-|---------------|-4-4xxx4x4xxxx-|
D-|-5-5xxx5x5xxxx-|-4-4xxx4x4xxxx-|
A-|-5-5xxx5x5xxxx-|-2-2xxx2x2xxxx-|
E-|-3-3xxx3x3xxxx-|---------------|

E-|---------------|---------------|
B-|---------------|---------------|
G-|-2-2xxx2x2xxxx-|-7-7xxx7x7xxxx-|
D-|-2-2xxx2x2xxxx-|-7-7xxx7x7xxxx-|
A-|-0-0xxx0x0xxxx-|-5-5xxx5x5xxxx-|
E-|---------------|---------------|

Chorus

Break: a little bit of silence then quietly
guitar 1 - each section twice except the 4th one
E-|----------------|-------------|
B-|----------------|-------------|
G-|----------------|-------------|
D-|--------12-10-9-|-----12-10-9-|
A-|-10101010-------|-9999--------|
E-|----------------|-------------|

E-|---------------|------------------------------|
B-|---------------|------------------------------|
G-|---------------|------------------------------|
D-|-10101010-9----|-12121212-12-12-12121212-10-9-|
A-|------------12-|------------------------------|
E-|---------------|------------------------------|

guitar 2
E-----------------------------------------------------|
B-----------------------------------------------------|
G-----------------------------------------------------|
D-----12~-12-10-9----12~-12-10-9-10~-----12-10-9-10b~-|
A-10~-------------9~-----------------10~--------------|
E-----------------------------------------------------|

E-------------------------|
B-------------------------|
G-777799991111111112121212|
D-xxxxxxxx-x-x-x-x-x-x-x-x-|
A-55557777-9-9-9-910101010-|
E--------------------------|

Chorus

Outro:
E-------------------------|
B-------------------------|
G-777799991111111112121212|
D-xxxxxxxx-x-x-x-x-x-x-x-x-|
A-55557777-9-9-9-910101010-|
E--------------------------|

Questions?
Email at Coldfry1@aol.com
Tap to rate this tab
# A B C D E F G H I J K L M N O P Q R S T U V W X Y Z