Song name
# A B C D E F G H I J K L M N O P Q R S T U V W X Y Z

Blue October - Been Down tab

Blue October
Been Down
Approaching Normal

Standard Tuning

Intro:
E---------------------------|
B---------------------------|
G----10p9--------10p9-------|
D------------------------10-|
A-10~-----12~-10~-----12~---|
E---------------------------|

Verse 1:
E----------------------------------------|
B----------------------------------------|
G----------------------------------------|
D--------------------10------------------|
A-10~--12~--10~--12~---10~-12~--10~--12~-|
E----------------------------------------|

Chorus:
E-1~---3-0~--3-1~---3-0~--3-1~---3-0~-|
B-1~---3-1~--3-1~---3-1~--3-1~---3-1~-|
G-2~---0-2~--0-2~---0-2~--0-2~---0-2~-|
D-3~---0-2~--0-3~---0-2~--0-3~---0-2~-|
A-3~---2-0~--2-3~---2-0~--2-3~---2-0~-|
E-1~---3-----3-1~---3-----3-1~---3----|

E-3~-1~-3~-1~
B-3~-1~-3~-1~
G-0~-2~-0~-2~
D-0~-3~-0~-3~
A-2~-3~-2~-3~
E-3~-1~-3~-1~

Verse 2:
E-------------------------------------------|
B-------------------------------------------|
G---------10p9-----------------10p9---------|
D--------------------10---------------------|
A-10~--12~----10~-12~--10~--12~----10~--12~-|
E-------------------------------------------|

Chorus

Break:
E----1------3------0------0----|
B------1------3------1------1--|
G-------2------4------2------2-|
D------------------------------|
A----------------0~-----0~-----|
E-1~------3~-------------------|
3x then

E----1-------3----|
B------1-------3--|
G-------2-------4-|
D-----------------|
A-----------------|
E-1~------3~------|
2x

Intro
Verse 2
Chorus 2x

Outro: 2x
E----------------------------------------------|
B----------------------------------------------|
G-12/141414141414141414-12/14141414141417161412|
D--x/-x-x-x-x-x-x-x-x-x--x/-x-x-x-x-x-x-x-x-x-x|
A-10/121212121212121212-10/12121212121215141210|
E----------------------------------------------|

E----------------------------------------------|
B----------------------------------------------|
G-12/141414141414141414-12/14141414141414141414|
D--x/-x-x-x-x-x-x-x-x-x--x/-x-x-x-x-x-x-x-x-x-x|
A-10/121212121212121212-10/12121212121212121212|
E----------------------------------------------|

E----------------------------------------------|
B----------------------------------------------|
G-12/141414141414141414-12/14141414141417161412|
D--x/-x-x-x-x-x-x-x-x-x--x/-x-x-x-x-x-x-x-x-x-x|
A-10/121212121212121212-10/12121212121215141210|
E----------------------------------------------|

Then a continuous:
E---
B---
G-12
D--x
A-10
E---

Last notes:
E-1~---3-0~-|
B-1~---3-1~-|
G-2~---0-2~-|
D-3~---0-2~-|
A-3~---2-0~-|
E-1~---3----|

Questions?
Email at Coldfry1@aol.com
Tap to rate this tab
# A B C D E F G H I J K L M N O P Q R S T U V W X Y Z