Song name
# A B C D E F G H I J K L M N O P Q R S T U V W X Y Z

Blue October - The End tab

Blue October
The End
Approaching Normal

Drop D Tuning

Note - I have never known Blue October to play
in Drop D ever but it seems that's the only way to
play this song for the ending

Verse:
E-----------------------|
B-----------------------|
G-----------------------|
D----3-2~--0-2----2~----|
A-0~-----------3~-------|
D--------------------3~-|

Pre-Chorus:
E------------------|
B------------------|
G------------------|
D------------------|
A-----11-10--------|
D-10~-------8~-10~-|

Chorus:
E---------------------------------|
B---------------------------------|
G---------------------------------|
D-00000000333333335555555588888888|
A-00000000333333335555555588888888|
D-00000000333333335555555588888888|

E---------------------------------|
B---------------------------------|
G---------------------------------|
D-00000000333333335558888888888888|
A-00000000333333335558888888888888|
D-00000000333333335558888888888888|

Order is easy to figure out

Questions?
Email at Coldfry1@aol.com
Tap to rate this tab
# A B C D E F G H I J K L M N O P Q R S T U V W X Y Z