Song name
# A B C D E F G H I J K L M N O P Q R S T U V W X Y Z

Blue October - Jump Rope tab

Blue October
Jump Rope
Approaching Normal

Standard Tuning

Intro: 8x
E-------|
B-------|
G-------|
D-3-3-3-|
A-------|
E-------|

Verse: bass only

Chorus:
E-------------------------------------|
B---1-1-1----1-1-1----3-3-3----1-1-1--|
G--2-2-2-2--2-2-2-2--2-2-2-2--2-2-2-2-|
D-3--------2--------0-----------------|
A----------------------------3--------|
E-------------------------------------|

Intro 2x

Chorus

Break:
E-------------5--------|
B---3----5---3-3-------|
G--3-3--5-5-2----5-5-5-|
D-3----5---------x-x-x-|
A----------------3-3-3-|
E----------------------|

Intro 8x

Chorus

Questions?
Email at Coldfry1@aol.com
Tap to rate this tab
 
# A B C D E F G H I J K L M N O P Q R S T U V W X Y Z