Song name
# A B C D E F G H I J K L M N O P Q R S T U V W X Y Z

Blue October - My Never tab

Help us improve GuitareTab! Take a short survey!
This is the complete version of "My Never."  It's an easy song to learn and play.
Cheers!
~fallon

e----------------------------------------------|
B----------------------------------------------|
G--------------------------------------8-------|
D----------9----------9----------9--------9----|	(x4)
A---7--7------7--7-------7--7-------7----------|
E----------------------------------------------|

e------------    -----------    -----------    -----------|
B------------    -----------    -----------    -----------|
G------------    -----------    -----------    -----------|
D---------9--(x4)-------9---(x4)-------7---(x4)-------6---| (x3)
A---7--7-----    --6--6-----    --5--5-----    --4--4-----|
E------------    -----------    -----------    -----------|

e--------------|
B--------------|
G--------------|
D------6-----6-|
A---4-----4----|
E--------------|

e------------    -----------    ------------    -----------|
B------------    -----------    ------------    -----------|
G------------    -----------    ------------    -----------|
D---------9--(x4)--------9--(x4)---------7--(x4)--------6--| (x3)
A---7--7-----    --6--6-----    ---5--5-----    --4--4-----|
E------------    -----------    ------------    -----------|

e---------|
B---------|
G---------|
D---6--4--|
A---4--2--|
E---------|

e-------------------------------------    ----------------------|
B-------------------------------------    ----------------------|
G-------------------------------------    ----------------------|
D-----0--2---2---2------2--4---4---4--(x3)-----0--2---2---2-----|
A--0-------0---0-----2-------2---2----    ---0------0---0---0---|
E-------------------------------------    ----------------------|


e-----------------------------------------------|
B-----------------------------------------------|
G--------------------------------------8--------|
D----------9----------9----------9---------9----| (x2)
A---7--7------7--7-------7--7-------7-----------|
E-----------------------------------------------|

e-----------    -----------    -----------    -----------|
B-----------    -----------    -----------    -----------|
G-----------    -----------    -----------    -----------|
D--------9--(x4)--------9--(x4)--------7--(x4)--------6--| (x3)
A--7--7-----    --6--6-----    --5--5-----    --4--4-----|
E-----------    -----------    -----------    -----------|

e-----------|
B-----------|
G-----------|
D-----6---6-|
A---4---4---|
E-----------|

e------------    -----------    -----------    ----------|
B------------    -----------    -----------    ----------|
G------------    -----------    -----------    ----------|
D--------9---(x4)--------9--(x4)--------7--(x4)--------6-| (x3)
A--7--7------    --6--6-----    --5--5-----    --4--4----|
E------------    -----------    -----------    ----------|

e--------|
B--------|
G--------|
D---6--4-|
A---4--2-|
E--------|

e----------------------------------       ---------------------|
B----------------------------------       ---------------------|
G----------------------------------       ---------------------|
D----0--2---2---2----2--4---4---4--  (x3) -----0--2---2---2----|  (x2)
A--0------0---0----2------2---2----      --0-------0---0-------|
E----------------------------------       ---------------------|

e----------------------------------------------------------------------|
B----------------------------------------------------------------------|
G----------------------------------------------------------------------|
D--------9---9---9--------9---9---9-------7-----7---7--------6---6---6-|
A--7--7----7---7----6--6----6---6----5--5----5----5----4--4----4---4---|
E----------------------------------------------------------------------|

e-----------------------------------------------------------------|
B-----------------------------------------------------------------|
G-----------------------------------------------------------------|
D--------9---9---9-------9---9---9--------7---7---7-------6--6--4-|
A--7--7----7---7----6--6----6---6----5--5---5---5----4--4----4--2-|
E-----------------------------------------------------------------|


e---------------------------------------|
B---------------------------------------|
G---------------------------------------|
D-----0--2----2---2------2--4----4---4--| (x4)
A---0-------0---0------2-------2---2----|
E---------------------------------------|

e-------------------------------        ------------------------------|
B-------------------------------        ------------------------------|
G-------------------------------        ------------------------------|
D------0--2-----2---2-----2--4--  (x3)    -----0--2------2-----2------|
A---0--------0---0------2-------        --0---------0-----0-----0-----|
E-------------------------------        ------------------------------|

e------------------------------------------        --------|
B------------------------------------------        --------|
G-----------------------------------8------        --------|
D---------9--------9---------9--------9----  (x4)  ---9----|   [END]
A---7--7-----7--7------7--7------7---------       ---7-----|
E------------------------------------------        --------|
Related for My Never tab