Song name
# A B C D E F G H I J K L M N O P Q R S T U V W X Y Z

Blue October - The End tab

-------------------------------------------------------------------------------
			     The End - Blue October
-------------------------------------------------------------------------------
Tabbed by: Glade8316
Email: gladenielson@yahoo.com

Tuning: standard

=====================================================================


Intro/verse (guitar part)

e|--------------------------------------------|
B|--------------------------------------------|
G|--------------------------------------------|
D|--------------------------------------------|
A|--------8-7---------------5-7---7-1---------|
E|------5-----------------------8-------------| 


=====================================================================



Pre-Chorus

e|-------------------------|
B|-------------------------|
G|-------------------------|
D|-------------------------|
A|-------11-10-------------|
E|-----8------6-----8------|


=====================================================================



Chorus

e|-------------------------------------------------------------------------|
B|-------------------------------------------------------------------------|
G|-------------------------------------7-7-7-7-7-7-7-7-1010101010101010----|
D|----7-7-7-7-7-7-7-7-1010101010101010-7-7-7-7-7-7-7-7-1010101010101010----|
A|----7-7-7-7-7-7-7-7-1010101010101010-5-5-5-5-5-5-5-5-8-8-8-8-8-8-8-8-----|
E|----5-5-5-5-5-5-5-5-8-8-8-8-8-8-8-8--------------------------------------|


e|-------------------------------------------------------------------------|
B|-------------------------------------------------------------------------|
G|-------------------------------------7-7-7-7-101010101010101010101010----|
D|----7-7-7-7-7-7-7-7-1010101010101010-7-7-7-7-101010101010101010101010----|
A|----7-7-7-7-7-7-7-7-1010101010101010-5-5-5-5-8-8-8-8-8-8-8-8-8-8-8-8-----|
E|----5-5-5-5-5-5-5-5-8-8-8-8-8-8-8-8--------------------------------------|


=====================================================================


verse x2
Pre-Chorus x2
Chorus x2
verse x2
Pre-Chorus x2
Chorus x2
verse x2
Pre-Chorus x2
Chorus x4


Tap to rate this tab
 
# A B C D E F G H I J K L M N O P Q R S T U V W X Y Z