Song name
# A B C D E F G H I J K L M N O P Q R S T U V W X Y Z

Blue October - Jump Rope chords

Highlighted       Show chord diagrams
----------------------------------------------------------------------------
			     Jump Rope - Blue October
----------------------------------------------------------------------------
Tabbed by: Mathieu Bérubé
Email: semi.charmedlife@hotmail.com

Tuning: Standard

   F    Am   Dm   C    Bb
E--1----0----1----0----1--|
B--1----1----3----1----3--|
G--2----2----2----0----3--|
D--3----2----0----2----3--|
A--3----0----0----3----1--|
E--1----0----0----0----1--|

Verse: F  Am  Dm  C

Chorus: F  Am  Dm  C

Bridge 1: F  Dm  C  Bb  Bb  C  Dm  C

Bridge 2: F

   
Tap to rate this tab
# A B C D E F G H I J K L M N O P Q R S T U V W X Y Z