Song name
# A B C D E F G H I J K L M N O P Q R S T U V W X Y Z

Blue October - The End tab

-------------------------------------------------------------------------------
			     The End - Blue October
-------------------------------------------------------------------------------
Tabbed by: Glade8316
Email: gladenielson@yahoo.com

Tuning: standard




Intro/verse (guitar part)

e|-----------------------------------|
B|-----------------------------------|
G|-----------------------------------|
D|-----3-2---------------0-2---2-----|
A|---0-----------------------3-------|
E|-------------------------------1---| 




Pre-Chorus

e|-------------------------|
B|-------------------------|
G|-------------------------|
D|-------------------------|
A|-------11-10-------------|
E|-----8------6-----8------|




Chorus

e|---------------------------------------------------------------------|
B|---------------------------------------------------------------------|
G|-----------------------------------4-4-4-4-4-4-4-4-7-7-7-7-7-7-7-7---|
D|---4-4-4-4-4-4-4-4-7-7-7-7-7-7-7-7-4-4-4-4-4-4-4-4-7-7-7-7-7-7-7-7---|
A|---4-4-4-4-4-4-4-4-7-7-7-7-7-7-7-7-2-2-2-2-2-2-2-2-5-5-5-5-5-5-5-5---|
E|---2-2-2-2-2-2-2-2-5-5-5-5-5-5-5-5-----------------------------------|


e|---------------------------------------------------------------------|
B|---------------------------------------------------------------------|
G|-----------------------------------4-4-4-4-7-7-7-7-7-7-7-7-7-7-7-7---|
D|---4-4-4-4-4-4-4-4-7-7-7-7-7-7-7-7-4-4-4-4-7-7-7-7-7-7-7-7-7-7-7-7---|
A|---4-4-4-4-4-4-4-4-7-7-7-7-7-7-7-7-2-2-2-2-5-5-5-5-5-5-5-5-5-5-5-5---|
E|---2-2-2-2-2-2-2-2-5-5-5-5-5-5-5-5-----------------------------------|





verse x2
Pre-Chorus x2
Chorus x2
verse x2
Pre-Chorus x2
Chorus x2
verse x2
Pre-Chorus x2
Chorus x4
Tap to rate this tab
# A B C D E F G H I J K L M N O P Q R S T U V W X Y Z