Song name
# A B C D E F G H I J K L M N O P Q R S T U V W X Y Z

Blue October - 3 Weeks She Sleeps tab

Blue October
3 Weeks, She Sleeps
History For Sale

E---------------------------|
B---0-----0-----------------|
G-------------2---2p0-0-----|
D-----0-----0---0-------0---|
A-------------------------0-|
E-3-----2-------------------|

E-------------------------|
B-------------------------|
G-----0-----0-----0-------|
D---2-----0-----0-------0-|
A-3-----2-----1----1/3~---|
E-------------------------|

just repeat that through the whole song
but sometimes you leave off that last open d

Questions?
Email at Coldfry1@aol.com
Tap to rate this tab
 
# A B C D E F G H I J K L M N O P Q R S T U V W X Y Z