Song name
# A B C D E F G H I J K L M N O P Q R S T U V W X Y Z

Blue October - Dirty Room tab

E|-------------------------------------------------------------------|
A|-------------------------------------77-77-7-77-77-7---------------|
D|--99-99-9-99-99-9----77-77-7-77-7------6--6-6--6--6-6--------------|
G|----7--7-7--7--7-7-----6--6-6--6-6---------------------------------|
B|-------------------------------------------------------------------|
e|-------------------------------------------------------------------|


E-----------------------------||
A--99-99-9-99-99-9------------||
D----7--7-7--7--7-7-----------||Repeat 4 times
G-----------------------------||
B-----------------------------||
e-----------------------------||
Tap to rate this tab
 
# A B C D E F G H I J K L M N O P Q R S T U V W X Y Z