Song name
# A B C D E F G H I J K L M N O P Q R S T U V W X Y Z

Blue October - Say It tab

-------------------------------------------------------------
			    Say it - Blue october
-------------------------------------------------------------

Tabbed by: glade8316
Email: gladenielson@yahoo.com
Tuning: Standard

guitar 1 justin
guitar 2 CB


i am 100% sure that guitar 1 is right, i've
watched alot of videos of this song live
in order to figure it out and i think i've got it,
but im not 100% sure about guitar 2 but it sounds ok,
any corrections please let me know





Intro

guitar 1
e|---------------------------------------------------|
B|---1-1-5-5-0-0-1-1-1-1-1-1-1-1h3-0-0-0-0-5-5-0-0---|
G|---------------------------------------------------|
D|---------------------------------------------------|
A|---------------------------------------------------|
E|---------------------------------------------------|

e|---------------------------------------------------|
B|---1-1-1-1-1-1h3~--1~--1-1-5-5-0-0-----------------|
G|---------------------------------------------------|
D|---------------------------------------------------|
A|---------------------------------------------------|
E|---------------------------------------------------|

e|---------------------------------------------------|
B|---1-1-1-1-1-1-1-1h3-0-0-0-0-5-5-0-0-----3b--------|
G|---------------------------------------------------|
D|---------------------------------------------------|
A|---------------------------------------------------|
E|---------------------------------------------------|


===================================================================

no guitar during the verse

===================================================================

when performing live justin hits each note once
and lets them ring as long as needed, but it also
sounds ok if you strum them too


Chorus

guitar 1
e|-----------------------------------------------|\
B|---1~~~~~~~~---------------1~~~~~~~~~~~~~~~~---| \
G|---0~~~~~~~~---1~~~~~~~~---2~~~~~~~~~~~~~~~~---|  \ 
D|---2~~~~~~~~---2~~~~~~~~---2~~~~~~~~~~~~~~~~---|   \
A|---3~~~~~~~~---2~~~~~~~~---0~~~~~~~~~~~~~~~~---|    \
E|---------------0~~~~~~~~-----------------------|     \
                                                        \
                                                        | 2X 
guitar 2                                                /
e|-----------------------------------------------|     /
B|---1-1-3-3-5-5-8-8-5~~~----1-1-0-0-1-1-0-0-----|    /
G|-------------------------------------------2---|   /
D|-----------------------------------------------|  /
A|-----------------------------------------------| /
E|-----------------------------------------------|/

===================================================================

after the chorus

guitar 1
e|--------------------------------------------------------|
B|---1-1-5-5-0-0-1-1-1-1-1-1-1-1h3-0-0-0-0-5-5-0-0---3b---|
G|--------------------------------------------------------|
D|--------------------------------------------------------|
A|--------------------------------------------------------|
E|--------------------------------------------------------|

===================================================================

all credit to for verse 2 go to coldfry1



verse 2

guitar 2
e|---------3-0--------0----------3-0-------0-----| as many
B|---1p0h1------1p0h1---0--1p0h1-----1p0h1---0---| times as
G|-----------------------------------------------| needed
D|-----------------------------------------------|
A|-----------------------------------------------|
E|-----------------------------------------------|


===================================================================


Chorus

guitar 1
e|-----------------------------------------------|\
B|---1~~~~~~~~---------------1~~~~~~~~~~~~~~~~---| \
G|---0~~~~~~~~---1~~~~~~~~---2~~~~~~~~~~~~~~~~---|  \ 
D|---2~~~~~~~~---2~~~~~~~~---2~~~~~~~~~~~~~~~~---|   \
A|---3~~~~~~~~---2~~~~~~~~---0~~~~~~~~~~~~~~~~---|    \
E|---------------0~~~~~~~~-----------------------|     \
                                                        \
                                                        | 2X 
guitar 2                                                /
e|-----------------------------------------------|     /
B|---1-1-3-3-5-5-8-8-5~~~----1-1-0-0-1-1-0-0-----|    /
G|-------------------------------------------2---|   /
D|-----------------------------------------------|  /
A|-----------------------------------------------| /
E|-----------------------------------------------|/

===================================================================


guitar 1
e|--------------------------------------------------------|
B|---1-1-5-5-0-0-1-1-1-1-1-1-1-1h3-0-0-0-0-5-5-0-0---3b---|
G|--------------------------------------------------------|
D|--------------------------------------------------------|
A|--------------------------------------------------------|
E|--------------------------------------------------------|

===================================================================


bridge

guitar 2
e|----------------------------------------------------------------------|
B|----------------------------------------------------------------------|
G|----------------------------------------------------------------------|
D|---x-x--3-3-3-3-3-3-3-3-5-5-5-5-5-5-5-5-7-7-7-7-7-7-7-7---xx--xx--x---|
A|---x-x--3-3-3-3-3-3-3-3-5-5-5-5-5-5-5-5-7-7-7-7-7-7-7-7---xx--xx--x---|
E|---x-x--1-1-1-1-1-1-1-1-3-3-3-3-3-3-3-3-5-5-5-5-5-5-5-5---xx--xx--x---|
          * * * * * * * * * * * * * * * * * * * * * * * *

guitar 2
e|-----------------------------------------------------|
B|-----------------------------------------------------|
G|-----------------------------------------------------|
D|---3-3-3-3-3-3-3-3-5-5-5-5-5-5-5-5-7-7-7-7-7-7-7-7---|
A|---3-3-3-3-3-3-3-3-5-5-5-5-5-5-5-5-7-7-7-7-7-7-7-7---|
E|---1-1-1-1-1-1-1-1-3-3-3-3-3-3-3-3-5-5-5-5-5-5-5-5---|
    


guitar 2
e|-------------------------------|
B|-------------------------------|
G|-------------------------------|
D|---xx--xx--xx--xx--x--x--x-----|
A|---xx--xx--xx--xx--x--x--x-----|
E|---xx--xx--xx--xx--x--x--x-----|
       

===================================================================


chorus

guitar 1
e|-----------------------------------------------|\
B|---1~~~~~~~~---------------1~~~~~~~~~~~~~~~~---| \
G|---0~~~~~~~~---1~~~~~~~~---2~~~~~~~~~~~~~~~~---|  \ 
D|---2~~~~~~~~---2~~~~~~~~---2~~~~~~~~~~~~~~~~---|   \
A|---3~~~~~~~~---2~~~~~~~~---0~~~~~~~~~~~~~~~~---|    \
E|---------------0~~~~~~~~-----------------------|     \
                                                        \
                                                        | 2X 
guitar 2                                                /
e|-----------------------------------------------|     /
B|---1-1-3-3-5-5-8-8-5~~~----1-1-0-0-1-1-0-0-----|    /
G|-------------------------------------------2---|   /
D|-----------------------------------------------|  /
A|-----------------------------------------------| /
E|-----------------------------------------------|/


===================================================================    


outro
   
both guitars                             
e|-----------------------------------------------|
B|---1-1-3-3-5-5-8-8-5~~~----1-1-0-0-1-1-0-0-----|
G|-------------------------------------------2---|
D|-----------------------------------------------|
A|-----------------------------------------------|
E|-----------------------------------------------|


both guitars
e|-----------------------------------------------|
B|---11111111----------------1111111111111111----|
G|---00000000----11111111----2222222222222222----|
D|---22222222----22222222----2222222222222222----|
A|---33333333----22222222----0000000000000000----|
E|---------------00000000------------------------|


both guitars
e|-----------------------------------------------------|
B|---6-5-6-8-6-5-6-8-6-5--5--33-55-33-55-33-55-33-55---|
G|-----------------------------------------------------|
D|-----------------------------------------------------|
A|-----------------------------------------------------|
E|-----------------------------------------------------|


both guitars
e|-----------------------------------------------------|
B|---1-1-5-5-0-0-1-1-1-1-1-1-1-1h3-0-0-0-0-5-5-0-0-----|
G|-----------------------------------------------------|
D|-----------------------------------------------------|
A|-----------------------------------------------------|
E|-----------------------------------------------------|


guitar 1
e|-------------------------------|
B|-------------------------------|
G|-------------------------------|
D|---xx--xx--xx--xx--x--x--x-----|
A|---xx--xx--xx--xx--x--x--x-----|
E|---xx--xx--xx--xx--x--x--x-----|
Tap to rate this tab
 
# A B C D E F G H I J K L M N O P Q R S T U V W X Y Z