Song name
# A B C D E F G H I J K L M N O P Q R S T U V W X Y Z

Blue October - Somebody tab

-------------------------------------------------------------------------------
			     SOMEBODY - Blue October
-------------------------------------------------------------------------------
Tabbed by: Carlos Ruiz
Email: italiaruiz97@yahoo.com

Tuning: Drop D


Drop D tuning, couldnt find one on here. here is a video of me playing this song as i 
tabbed it here:  http://www.youtube.com/watch?v=QKXXPamdsag&feature=channel_page
Intro   (listen to song for timing/rythym)

e|----------------------------------------------------------------|
B|----------------------------------------------------------------|
G|----------------------------------------------------------------|
D|----------------------------------------------------------------|
A|---------------------------------1b-----------------------------|
D|-0-0--0-0-0-0--0-0-0-0--0-0-0-0---------------------------------|
                    next part
e|-----------------------------------------------------------------------|
B|-----------------------------------------------------------------------|
G|------10b------------10b--------------10b------------------------------|
D|-----------------------------------------------------------------------|
A|------------------------------------------------------1b---------------|
D|--0-0------0-0-0-0----------0-0-0-0--------0-0-0-0---------------------|
        prechorus
e|--------------------------------------------------------------------------|
B|-------10b----------------------------------------------------------------|
G|--------------------------------------------------------------------------|
D|--------------------------------------------------------------------------|
A|--------------------1b----------------------------------------------------|
D|-0-0------0-0-0-0---------------------------------------------------------|


chorus

e|--------------------------------------------------------------------------|
B|--------------------------------------------------------------------------|
G|--------------------------------------------------------------------------|
D|--------------------------------------------------------------------------|
A|--------------------------------------------------------------------------|
D|---5h7p5--3-5-3-0-0-0-0-3b----5h7p5-3-5-3-0-0-0-0--0-0-0-0----------------|
         for the part after the chorus play the intro rythym but with no bends
                    BEFORE BRIDGE (listen to song for strumming pattern)
e|---------------------------------------------------------------------------|
B|---------------------------------------------------------------------------|
G|-7---9---7---5-------------------------------------------------------------|
D|-7-------------------------------------------------------------------------|
A|-5---7---5---3-------------------------------------------------------------|
D|---------------------------------------------------------------------------|
            for bridge just play the open d string a lot of times
e|---------------------------------------------------------------------------|
B|---------------------------------------------------------------------------|
G|---------------------------------------------------------------------------|
D|---------------------------------------------------------------------------|
A|---------------------------------------------------------------------------|
D|---------------------------------------------------------------------------|   outro

e|-------------------------------------------------------------------------|
B|-------------------------------------------------------------------------|
G|------10b----------------------10b---------------------------------------|
D|-------------------------------------------------------------------------|
A|--------------------2b--------------------------1b-----------------------|
D|-0-0-------0-0-0-0-------0-0---------0-0-0-0-----------------------------|
                 end the song however you want

           italiaruiz97@yahoo.com

| b  bend
| /  slide up
| \  slide down
| h  hammer-on
| p  pull-off
| ~  vibrato
| +  harmonic
| x  Mute note
===============================================================================
Tap to rate this tab
# A B C D E F G H I J K L M N O P Q R S T U V W X Y Z