Song name
# A B C D E F G H I J K L M N O P Q R S T U V W X Y Z

Blue October - Still Broken tab

This song begins with a violin:

e-------------------------------------------|
B--3-5-3-7-5-3h5h3-2-2-0-0------------------|
G--------------------------2-2-0-0----2-----|
D-----------------------------------------0-|
A-------------------------------------------|
E-------------------------------------------|


Then bass:

G----------------------------------|
D----------------------------------|
A--5-5-----------------------5---5-|
E------3-3-5-5-5-5-5-3-3-3-5--5-5--|


Then the first guitar part is:

e--------------------------------|
B--------------------------------|
G--2/4-4/6-6/7-7--7h9-7-6h7-6h7--|
D--------------------------------|
A--------------------------------|
E--------------------------------|

Some chords come in but they are hard to hear because of the cello. But I think they are:

D  G  A  G  A  D
Tap to rate this tab
# A B C D E F G H I J K L M N O P Q R S T U V W X Y Z